Dyers Eve Solo

01234567891011121314151617181920212223
E
B
G
D
A
E
B
0 1 2 3 4 5 6 7 8 9 10 11 12 13 14 15 16 17 18 19 20 21 22 23
(/) Slide Up  (\) Slide Down  (h) Hammer On  (p) Pull Off  (b) Bend (r) Release (v) Vibrato

(W|WW) Whole  (H|HH) Half  (Q|QQ) Quarter  (E|EE) 8th (S|SS) 16th  (T|TT) 32nd (X|XX) 64th

Stave 1:
t:  QQ  QQ  QQ  QQ  QQ  QQ  QQ  QQ  QQ  QQ  QQ  QQ  QQ  QQ  QQ  QQ  QQ  QQ  QQ  QQ  
E|----------12------------------12------------------12------------------12----------
B|------12------15--12------12------15--12------12------15--12------12------15--12--
G|--14------------------14------------------14------------------14------------------
D|----------------------------------------------------------------------------------
A|----------------------------------------------------------------------------------
E|----------------------------------------------------------------------------------

Stave 2:
t:  QQ  QQ  QQ  QQ  QQ  QQ  QQ  QQ  QQ  QQ  QQ  QQ  QQ  QQ  QQ  QQ  QQ  
E|--12--15--12------12--15--12------12--15--12------12--15--12--14------
B|--------------15--------------15--------------15------------------14--
G|----------------------------------------------------------------------
D|----------------------------------------------------------------------
A|----------------------------------------------------------------------
E|----------------------------------------------------------------------

Stave 3:
t:  QQ  QQ  QQ  QQ  QQ  QQ  QQ  QQ  QQ  QQ  QQ  QQ  QQ  QQ  QQ  QQ  QQ  QQ  
E|--14--17--14------19--17--14------14--17--14--17--14------19----------22--
B|--------------17--------------17----------------------16------20--22------
G|--------------------------------------------------------------------------
D|--------------------------------------------------------------------------
A|--------------------------------------------------------------------------
E|--------------------------------------------------------------------------

Stave 4:
t:  QQ  Q  Q  QQ  QQ  Q  QQ  QQ  QQ  QQ  QQ  QQ  QQ  QQ  QQ  
E|-----------------------------------------------------------
B|--12--------12---------------------------------------------
G|--12--------12---------------------------------------------
D|----------------12-----12--14--12--------------------------
A|-----------------------------------14--13--12--10--12--12--
E|-----------------------------------------------------------

Stave 5:
t:  
E|--
B|--
G|--
D|--
A|--
E|--

							http://www.guitartabcreator.com
Chords

genre
Instruments
{"strings":[[[".",".",12,".",".",".",".",12,".",".",".",".",12,".",".",".",".",12,".","."],[".",12,".",15,12,".",12,".",15,12,".",12,".",15,12,".",12,".",15,12],[14,".",".",".",".",14,".",".",".",".",14,".",".",".",".",14,".",".",".","."],[".",".",".",".",".",".",".",".",".",".",".",".",".",".",".",".",".",".",".","."],[".",".",".",".",".",".",".",".",".",".",".",".",".",".",".",".",".",".",".","."],[".",".",".",".",".",".",".",".",".",".",".",".",".",".",".",".",".",".",".","."]],[[12,15,12,".",12,15,12,".",12,15,12,".",12,15,12,14,"."],[".",".",".",15,".",".",".",15,".",".",".",15,".",".",".",".",14],[".",".",".",".",".",".",".",".",".",".",".",".",".",".",".",".","."],[".",".",".",".",".",".",".",".",".",".",".",".",".",".",".",".","."],[".",".",".",".",".",".",".",".",".",".",".",".",".",".",".",".","."],[".",".",".",".",".",".",".",".",".",".",".",".",".",".",".",".","."]],[[14,17,14,".",19,17,14,".",14,17,14,17,14,".",19,".",".",22],[".",".",".",17,".",".",".",17,".",".",".",".",".",16,".",20,22,"."],[".",".",".",".",".",".",".",".",".",".",".",".",".",".",".",".",".","."],[".",".",".",".",".",".",".",".",".",".",".",".",".",".",".",".",".","."],[".",".",".",".",".",".",".",".",".",".",".",".",".",".",".",".",".","."],[".",".",".",".",".",".",".",".",".",".",".",".",".",".",".",".",".","."]],[[".","_","_",".",".","_",".",".",".",".",".",".",".",".","."],[12,"_","_",12,".","_",".",".",".",".",".",".",".",".","."],[12,"_","_",12,".","_",".",".",".",".",".",".",".",".","."],[".","_","_",".",12,"_",12,14,12,".",".",".",".",".","."],[".","_","_",".",".","_",".",".",".",14,13,12,10,12,12],[".","_","_",".",".","_",".",".",".",".",".",".",".",".","."]],[[],[],[],[],[],[]]],"numberofstrings":6,"notes":["E","B","G","D","A","E","B"],"capo":0,"stringnotes":["E4","B3","G3","D3","A2","E2"],"comments":["Stave 1:","Stave 2:","Stave 3:","Stave 4:","Stave 5:"],"timing":[["Q","Q","Q","Q","Q","Q","Q","Q","Q","Q","Q","Q","Q","Q","Q","Q","Q","Q","Q","Q"],["Q","Q","Q","Q","Q","Q","Q","Q","Q","Q","Q","Q","Q","Q","Q","Q","Q"],["Q","Q","Q","Q","Q","Q","Q","Q","Q","Q","Q","Q","Q","Q","Q","Q","Q","Q"],["Q","Q","Q","Q","Q","Q","Q","Q","Q","Q","Q","Q","Q","Q","Q"],[]],"timingvisible":true,"tabcounter":0,"stave":4,"totalstaves":5,"instrument":"6guitar","selectedtuning":"6_standard","version":"13"}

Member for

8 months 1 week
Submitted by buddyheadley06 on Sun, 2021-08-22 15:50