Creeping Death Solo

01234567891011121314151617181920212223
E
B
G
D
A
E
B
0 1 2 3 4 5 6 7 8 9 10 11 12 13 14 15 16 17 18 19 20 21 22 23
(/) Slide Up  (\) Slide Down  (h) Hammer On  (p) Pull Off  (b) Bend (r) Release (v) Vibrato

Stave 1:

E|------------------------------------------------------------------------------19--20--22--
B|--12--13--15--17--15--13--14--15--17--19--17--15--15--17--19--17--19--20--22--------------
G|------------------------------------------------------------------------------------------
D|------------------------------------------------------------------------------------------
A|------------------------------------------------------------------------------------------
E|------------------------------------------------------------------------------------------

Stave 2:

E|--22-----22-----22-----22-----22-----22-----22-----22-----19--
B|--------------------------------------------------------------
G|--------------------------------------------------------------
D|--------------------------------------------------------------
A|--------------------------------------------------------------
E|--------------------------------------------------------------

Stave 3:

E|--22--20--19--17--21--19--17--15--19--17--15--14--17--15--14--12--
B|------------------------------------------------------------------
G|------------------------------------------------------------------
D|------------------------------------------------------------------
A|------------------------------------------------------------------
E|------------------------------------------------------------------

Stave 4:

E|--15--14-------------------------------------------------
B|----------17--15--15--14--12--15--12--10--10---------10--
G|----------------------------------------------12---------
D|---------------------------------------------------------
A|---------------------------------------------------------
E|---------------------------------------------------------

							http://www.guitartabcreator.com
Chords

Instruments
{"strings":[[[".",".",".",".",".",".",".",".",".",".",".",".",".",".",".",".",".",".",".",19,20,22],[12,13,15,17,15,13,14,15,17,19,17,15,15,17,19,17,19,20,22,".",".","."],[".",".",".",".",".",".",".",".",".",".",".",".",".",".",".",".",".",".",".",".",".","."],[".",".",".",".",".",".",".",".",".",".",".",".",".",".",".",".",".",".",".",".",".","."],[".",".",".",".",".",".",".",".",".",".",".",".",".",".",".",".",".",".",".",".",".","."],[".",".",".",".",".",".",".",".",".",".",".",".",".",".",".",".",".",".",".",".",".","."]],[[22,"_",22,"_",22,"_",22,"_",22,"_",22,"_",22,"_",22,"_",19],[".","_",".","_",".","_",".","_",".","_",".","_",".","_",".","_","."],[".","_",".","_",".","_",".","_",".","_",".","_",".","_",".","_","."],[".","_",".","_",".","_",".","_",".","_",".","_",".","_",".","_","."],[".","_",".","_",".","_",".","_",".","_",".","_",".","_",".","_","."],[".","_",".","_",".","_",".","_",".","_",".","_",".","_",".","_","."]],[[22,20,19,17,21,19,17,15,19,17,15,14,17,15,14,12],[".",".",".",".",".",".",".",".",".",".",".",".",".",".",".","."],[".",".",".",".",".",".",".",".",".",".",".",".",".",".",".","."],[".",".",".",".",".",".",".",".",".",".",".",".",".",".",".","."],[".",".",".",".",".",".",".",".",".",".",".",".",".",".",".","."],[".",".",".",".",".",".",".",".",".",".",".",".",".",".",".","."]],[[15,14,".",".",".",".",".",".",".",".",".",".","_","."],[".",".",17,15,15,14,12,15,12,10,10,".","_",10],[".",".",".",".",".",".",".",".",".",".",".",12,"_","."],[".",".",".",".",".",".",".",".",".",".",".",".","_","."],[".",".",".",".",".",".",".",".",".",".",".",".","_","."],[".",".",".",".",".",".",".",".",".",".",".",".","_","."]]],"numberofstrings":6,"notes":["E","B","G","D","A","E","B"],"capo":0,"stringnotes":["E4","B3","G3","D3","A2","E2"],"comments":["Stave 1:","Stave 2:","Stave 3:","Stave 4:"],"timing":[["W","W","W","W","W","W","W","W","W","W","W","W","W","W","W","W","W","W","W","W","W","W"],["W","W","W","W","W","W","W","W","W","W","W","W","W","W","W","W","W"],["W","W","W","W","W","W","W","W","W","W","W","W","W","W","W","W"],["W","W","W","W","W","W","W","W","W","W","W","W","W","W"]],"timingvisible":false,"tabcounter":14,"stave":3,"totalstaves":4,"instrument":"6guitar","selectedtuning":"6_standard","version":"13"}

Member for

9 months 2 weeks
Submitted by buddyheadley06 on Thu, 2021-09-02 15:22