Sound will begin in 5 seconds

Damamine

01234567891011121314151617181920212223
E
B
G
D
A
E
B
0 1 2 3 4 5 6 7 8 9 10 11 12 13 14 15 16 17 18 19 20 21 22 23
Song Science #1: How Pros Use 6 Chords to Write Hit Songs
(/) Slide Up  (\) Slide Down  (h) Hammer On  (p) Pull Off  (b) Bend (r) Release (v) Vibrato

Stave 1:

E|--------------------------------------
B|--------------------------------------
G|--------------------------------------
D|-----5--------4--------2--------4-----
A|--7-----7--5-----5--3-----3--------5--
E|-----------------------------3--------

Stave 2:

E|--19b19b19v------------------------
B|-------------17b17b17v--20b20b20v--
G|-----------------------------------
D|-----------------------------------
A|-----------------------------------
E|-----------------------------------

Stave 3:

E|-----------3-----------------------------------3--------------------------
B|--5--3--5-----5--3--------------------5--3--5-----5--3--5--3-----3--------
G|--------------------4--2-----2--4-----------------------------------5-----
D|--------------------------5--------5--------------------------5--------5--
A|--------------------------------------------------------------------------
E|--------------------------------------------------------------------------

Stave 4:

E|----------------------
B|----------------------
G|--4--2-----2--4-------
D|--------5--------9\5--
A|----------------------
E|----------------------

Stave 5:

E|-----------3-----------------------------------3-------------
B|--5--3--5-----5--3--------------------5--3--5-----5--3--3/8--
G|--------------------4--2-----2--4----------------------------
D|--------------------------5--------5-------------------------
A|-------------------------------------------------------------
E|-------------------------------------------------------------

Stave 6:

E|------------------------
B|------------------------
G|--9---------------------
D|-----------9------------
A|--------------------10--
E|------------------------

Stave 7:

E|--7--5----3--2--3--2-----
B|----------------------3--
G|-------------------------
D|-------------------------
A|-------------------------
E|-------------------------

Stave 8:

E|-------------------
B|-------------------
G|--9------7------9--
D|--9------7------9--
A|--7------5------7--
E|-------------------

Stave 9:

E|--
B|--
G|--
D|--
A|--
E|--

Stave 10:

E|--------------------
B|--------------------
G|--9------7------12--
D|--9------7------12--
A|--7------5------10--
E|--------------------

http://www.guitartabcreator.com
Guitar Tab Creator is intended to store guitar tab created through the tool. It currently does not support in-line text editing. Any text you place in here will be lost. If you need to comment on your tab, please use the "Tab Notes" section located below.