Sound will begin in 5 seconds

china verse

01234567891011121314151617181920212223
E
B
G
D
A
E
B
0 1 2 3 4 5 6 7 8 9 10 11 12 13 14 15 16 17 18 19 20 21 22 23
Song Science #1: How Pros Use 6 Chords to Write Hit Songs
(/) Slide Up  (\) Slide Down  (h) Hammer On  (p) Pull Off  (b) Bend (r) Release (v) Vibrato

Stave 1:

E|---------------------------------------------------------------------
B|--------------8-----10--------8--12--11--10--8--10--8----------------
G|-----------7-----9------7--9---------------------------9--7----------
D|--7--8--9------------------------------------------------------------
A|-------------------------------------------------------------12--14--
E|---------------------------------------------------------------------

Stave 2:

E|------------------------------------------------------------------------------------------------------
B|--------------------------------------------------15--17--15------------------------------------------
G|--------------14--16--14--12----------12--14--16--------------16--14--16--12----------12--------------
D|--12--14--12------------------14--12------------------------------------------14--12------14--13--12--
A|------------------------------------------------------------------------------------------------------
E|------------------------------------------------------------------------------------------------------

Stave 3:

E|-------------------------------------------------------------------------------------
B|-------------------------------------------------------------------------------------
G|----------------------11------11-----------------------------------------------------
D|--------------10--12------12------10--11--12--10-------------------------------------
A|--10--11--12--------------------------------------12--11--10--9----------------------
E|-----------------------------------------------------------------10--10--10--10--10--

Stave 4:

E|------------------------------------------------------------------------------
B|-----------------5--7---------10----------------------------------------------
G|-----5--7--5-----------9--11------11------------------------------------------
D|--7-----------7-----------------------12------10--11--12--10------10--10--12--
A|------------------------------------------12------------------12--------------
E|------------------------------------------------------------------------------

http://www.guitartabcreator.com
Guitar Tab Creator is intended to store guitar tab created through the tool. It currently does not support in-line text editing. Any text you place in here will be lost. If you need to comment on your tab, please use the "Tab Notes" section located below.