Sound will begin in 5 seconds

cool blues grant green solo

01234567891011121314151617181920212223
E
B
G
D
A
E
B
0 1 2 3 4 5 6 7 8 9 10 11 12 13 14 15 16 17 18 19 20 21 22 23
Song Science #1: How Pros Use 6 Chords to Write Hit Songs
(/) Slide Up  (\) Slide Down  (h) Hammer On  (p) Pull Off  (b) Bend (r) Release (v) Vibrato

Stave 1:

E|------------------6p5-----------------------------------
B|--6h7p6--------6-------8--6-------------6---------------
G|---------7--8----------------7-----5/7-----5/6\5--3--5--
D|--------------------------------8-----------------------
A|--------------------------------------------------------
E|--------------------------------------------------------

Stave 2:

E|----------------------------------------------------------------------------
B|------------------------11--10----------------------------------------------
G|--10h11p10----------10----------12--10-----------------10-------------------
D|------------12--13----------------------12------10/12------10/11\10--8--10--
A|--------------------------------------------13------------------------------
E|----------------------------------------------------------------------------

Stave 3:

E|----------------6-----------6-----6-----6-----------------------------------------------------
B|----------6--8-----------9-----8-----7-----6-----11--10--9---------8------8--9--11--8---------
G|-----6/7--------------8-----------------------------------------8-----10---------------10--8--
D|--8---------------------------------------------------------10--------------------------------
A|----------------------------------------------------------------------------------------------
E|----------------------------------------------------------------------------------------------

Stave 4:

E|----------------8-----6--8p6--------------------------------4--3-----------
B|-------------9----------------6--6-----6p5p4p3--------3--6--------6--4-----
G|---------10-------------------------------------5--4--------------------5--
D|--10h11--------------------------------------------------------------------
A|---------------------------------------------------------------------------
E|---------------------------------------------------------------------------

Stave 5:

E|--------6--5-----3---------------------------------------------------------------------
B|-----4--------6-----4p3-----3--4--5--6-----------11--10--9--11--9--8-------------------
G|--5----------------------5--------------3-----------------------------10--8--7---------
D|--------------------------------------------------------------------------------10--8--
A|---------------------------------------------------------------------------------------
E|---------------------------------------------------------------------------------------

Stave 6:

E|--------------------------------------------------------------------------------------
B|----------------8--11-----11--14--12--11----------------------------------------------
G|-------------8----------------------------13--12--10------------------10--------------
D|---------10-------------------------------------------13--12--11--13------11--10------
A|--10h11---------------------------------------------------------------------------13--
E|--------------------------------------------------------------------------------------

Stave 7:

E|--------------------------------------------------------------------------------------------------
B|------------------------------------------------8--10--11--8-----------9--7--6--------------------
G|-----------------------------------7---------8----------------8--7--------------------8--7-----5--
D|--11----------------------------9-----9--10-------------------------------------7--8--------8-----
A|------13--10--10--10--10--------------------------------------------------------------------------
E|--------------------------------------------------------------------------------------------------

Stave 8:

E|------------------------8--11--10---------11v--8--10--8-----------------8-------------------------
B|---------------------9-------------11--------------------11--10--9--11-----9--8-------------------
G|-----5-----------10--------------------------------------------------------------10--8---------8--
D|--8-----8-------------------------------------------------------------------------------10h11-----
A|--------------------------------------------------------------------------------------------------
E|--------------------------------------------------------------------------------------------------

Stave 9:

E|---------8----------------11-------------------------------------------------
B|------9-----11--9------8---------8h9p8--------------------------9--8---------
G|--10---------------10-------------------10--8--7---------7--10--------10--8--
D|--------------------------------------------------10--9----------------------
A|-----------------------------------------------------------------------------
E|-----------------------------------------------------------------------------

Stave 10:

E|--13--12--------------10--8--9-------------------------
B|------------------11------------10--13--11p10------10--
G|----------10--12-------------------------------12------
D|-------------------------------------------------------
A|-------------------------------------------------------
E|-------------------------------------------------------

Stave 11:

E|-----------------------------------------------------------------------------------
B|------11--11--11------13/14--11--11-------------11--11-----11--13--14--11----------
G|--12------------------------------------10--12-----------------------------12--10--
D|------------------13---------------------------------------------------------------
A|-----------------------------------------------------------------------------------
E|-----------------------------------------------------------------------------------

Stave 12:

E|--------------------------------------------------------------------------------------------
B|------------------------------------------8--9--8-------------------------------------------
G|--8/9--8------8------------6/7--8--9--10-----------10--9--8--7---------7h8p7------7--8--10--
D|----------11-----11--8------------------------------------------9-------------10------------
A|-------------------------------------------------------------------10-----------------------
E|--------------------------------------------------------------------------------------------

Stave 13:

E|------------------------------------------------------------------------------------------
B|--8------------6--------6-----------------------------------------------------------------
G|-----8--7---------7--8-----8--7--5---------------5--7h8p7p5--4--7--5-------------------7--
D|-----------10-----------------------7-----8p7h8-----------------------5--8--6/7--4--3-----
A|---------------------------------------8--------------------------------------------------
E|------------------------------------------------------------------------------------------

http://www.guitartabcreator.com
Guitar Tab Creator is intended to store guitar tab created through the tool. It currently does not support in-line text editing. Any text you place in here will be lost. If you need to comment on your tab, please use the "Tab Notes" section located below.