Entre dos aguas 1976 Parte1 FREE TABS

Chords

01234567891011121314151617181920212223
E
B
G
D
A
E
B
0 1 2 3 4 5 6 7 8 9 10 11 12 13 14 15 16 17 18 19 20 21 22 23
(/) Slide Up  (\) Slide Down  (h) Hammer On  (p) Pull Off  (b) Bend (r) Release (v) Vibrato

Stave 1:

E|--3--3p2--2p0--0------------------0--2--3--5p3--3p2--3p2--2--2h3p2-----------------2--3p2--2p0--2p0--
B|------------------3--3p1--1--1h3------------------------------------5--3-----3--5--------------------
G|-----------------------------------------------------------------------------------------------------
D|-----------------------------------------------------------------------------------------------------
A|-----------------------------------------------------------------------------------------------------
E|-----------------------------------------------------------------------------------------------------

Stave 2:

E|--------------------------2-----0--------------------3--3--3\2--2--5\3--3--7\5--5/8--8--
B|--5--5--3-----------3--5-----3--------3-------------------------------------------------
G|-----------5-----5-----------------5-----5--4--4----------------------------------------
D|----------------------------------------------------------------------------------------
A|----------------------------------------------------------------------------------------
E|----------------------------------------------------------------------------------------

Stave 3:

E|--8--10--10--10p8--8p7--7-------------------------------8--7------------------------------
B|---------------------------10--8--7-----------7--8--10--------10--8--7--------------------
G|-------------------------------------9-----9----------------------------9--7h9p7----------
D|----------------------------------------------------------------------------------10--10--
A|------------------------------------------------------------------------------------------
E|------------------------------------------------------------------------------------------

Stave 4:

E|--7-------------------------7-------------------------7-------------------------7--8--10--10--10--10--10--10--10--8--7------7--
B|-----10--8--7-----7--8--10-----10--8--7-----7--8--10-----10--8--7-----7--8--10------------------------------------------10-----
G|---------------9-------------------------9-------------------------9-----------------------------------------------------------
D|-------------------------------------------------------------------------------------------------------------------------------
A|-------------------------------------------------------------------------------------------------------------------------------
E|-------------------------------------------------------------------------------------------------------------------------------

Stave 5:

E|--7--12--7--12--7--12--7--7h12--7-------------------------------------------8h10p8--7--10--8--10--8--7--8--7--8h10p8--8--7------7--
B|-----------------------------------10--10--10-----8--8p7--7-----------7--8--------------------------------------------------10-----
G|-------------------------------------------------------------9--7--9---------------------------------------------------------------
D|-----------------------------------------------------------------------------------------------------------------------------------
A|-----------------------------------------------------------------------------------------------------------------------------------
E|-----------------------------------------------------------------------------------------------------------------------------------

Stave 6:

E|--------------------------------------------3-----2-----0-----2-----3-----3-----2--3--5/7--7--7-----7--7-----
B|--12-----12-----12-----12-----12-----12-----1-----1-----1-----1-----1-----1--5----------------------------3--
G|--11-----11-----11-----11-----11-----11-----0-----0-----0-----0-----0-----0----------------------------------
D|--9------9------9------9------9------9------2----------------------------------------------------------------
A|-------------------------------------------------------------------------------------------------------------
E|-------------------------------------------------------------------------------------------------------------

Stave 7:

E|-----------2--3--5/7-----7--7--7--------------------------2--3--2--3--5--2/7--7--7--7--
B|-----3--5-------------------------------------3--5--3--5-------------------------------
G|--5-------------------------------5-----4--5-------------------------------------------
D|---------------------------------------------------------------------------------------
A|---------------------------------------------------------------------------------------
E|---------------------------------------------------------------------------------------

Stave 8:

E|--7h8p7------7--7h8p7---------7--8--7--10--8--7h8p7---------------------------
B|---------10---------------10-------------------------10-----8--7--------------
G|------------------------------------------------------------------9--7--9--7--
D|------------------------------------------------------------------------------
A|------------------------------------------------------------------------------
E|------------------------------------------------------------------------------

Stave 9:

E|--------------10--9--8--7--------------------------------------------------------------
B|--------7--8------------------10--8--7--10--8--10--8--7-----7-----7-----7-----7-----7--
G|--7--9------------------------------------------------------8-----8-----8-----8-----8--
D|------------------------------------------------------------9-----9-----9-----9-----9--
A|---------------------------------------------------------------------------------------
E|---------------------------------------------------------------------------------------

							http://www.guitartabcreator.com
Instruments
{"strings":[[[3,3,"p",2,2,"p",0,0,".",".",".",".",".",".",".",".",0,2,3,5,"p",3,3,"p",2,3,"p",2,2,2,"h",3,"p",2,".",".","_",".",".",2,3,"p",2,2,"p",0,2,"p",0],[".",".",".",".",".",".",".",".",3,3,"p",1,1,1,"h",3,".",".",".",".",".",".",".",".",".",".",".",".",".",".",".",".",".",".",5,3,"_",3,5,".",".",".",".",".",".",".",".",".","."],[".",".",".",".",".",".",".",".",".",".",".",".",".",".",".",".",".",".",".",".",".",".",".",".",".",".",".",".",".",".",".",".",".",".",".",".","_",".",".",".",".",".",".",".",".",".",".",".","."],[".",".",".",".",".",".",".",".",".",".",".",".",".",".",".",".",".",".",".",".",".",".",".",".",".",".",".",".",".",".",".",".",".",".",".",".","_",".",".",".",".",".",".",".",".",".",".",".","."],[".",".",".",".",".",".",".",".",".",".",".",".",".",".",".",".",".",".",".",".",".",".",".",".",".",".",".",".",".",".",".",".",".",".",".",".","_",".",".",".",".",".",".",".",".",".",".",".","."],[".",".",".",".",".",".",".",".",".",".",".",".",".",".",".",".",".",".",".",".",".",".",".",".",".",".",".",".",".",".",".",".",".",".",".",".","_",".",".",".",".",".",".",".",".",".",".",".","."]],[[".",".",".",".","_",".",".",".",2,".",0,".",".",".",".",".","_",3,3,3,"\\",2,2,5,"\\",3,3,7,"\\",5,5,"/",8,8],[5,5,3,".","_",".",3,5,".",3,".",".",3,".",".",".","_",".",".",".",".",".",".",".",".",".",".",".",".",".",".",".",".","."],[".",".",".",5,"_",5,".",".",".",".",".",5,".",5,4,4,"_",".",".",".",".",".",".",".",".",".",".",".",".",".",".",".",".","."],[".",".",".",".","_",".",".",".",".",".",".",".",".",".",".",".","_",".",".",".",".",".",".",".",".",".",".",".",".",".",".",".",".","."],[".",".",".",".","_",".",".",".",".",".",".",".",".",".",".",".","_",".",".",".",".",".",".",".",".",".",".",".",".",".",".",".",".","."],[".",".",".",".","_",".",".",".",".",".",".",".",".",".",".",".","_",".",".",".",".",".",".",".",".",".",".",".",".",".",".",".",".","."]],[[8,10,10,10,"p",8,8,"p",7,7,".",".",".",".","_",".",".",".",".",8,7,".",".",".",".",".",".",".",".",".",".","."],[".",".",".",".",".",".",".",".",".",".",10,8,7,".","_",".",7,8,10,".",".",10,8,7,".",".",".",".",".",".",".","."],[".",".",".",".",".",".",".",".",".",".",".",".",".",9,"_",9,".",".",".",".",".",".",".",".",9,7,"h",9,"p",7,".","."],[".",".",".",".",".",".",".",".",".",".",".",".",".",".","_",".",".",".",".",".",".",".",".",".",".",".",".",".",".",".",10,10],[".",".",".",".",".",".",".",".",".",".",".",".",".",".","_",".",".",".",".",".",".",".",".",".",".",".",".",".",".",".",".","."],[".",".",".",".",".",".",".",".",".",".",".",".",".",".","_",".",".",".",".",".",".",".",".",".",".",".",".",".",".",".",".","."]],[[7,".",".",".",".",".",".",".",7,".",".",".",".",".",".",".",7,".",".",".",".",".",".",".",7,8,10,10,10,10,10,10,10,8,7,".",7],[".",10,8,7,".",7,8,10,".",10,8,7,".",7,8,10,".",10,8,7,".",7,8,10,".",".",".",".",".",".",".",".",".",".",".",10,"."],[".",".",".",".",9,".",".",".",".",".",".",".",9,".",".",".",".",".",".",".",9,".",".",".",".",".",".",".",".",".",".",".",".",".",".",".","."],[".",".",".",".",".",".",".",".",".",".",".",".",".",".",".",".",".",".",".",".",".",".",".",".",".",".",".",".",".",".",".",".",".",".",".",".","."],[".",".",".",".",".",".",".",".",".",".",".",".",".",".",".",".",".",".",".",".",".",".",".",".",".",".",".",".",".",".",".",".",".",".",".",".","."],[".",".",".",".",".",".",".",".",".",".",".",".",".",".",".",".",".",".",".",".",".",".",".",".",".",".",".",".",".",".",".",".",".",".",".",".","."]],[[7,12,7,12,7,12,7,7,"h",12,7,".",".",".","_",".",".",".",".",".",".",".",".",".",".",8,"h",10,"p",8,7,10,8,10,8,7,8,7,8,"h",10,"p",8,8,7,".",7],[".",".",".",".",".",".",".",".",".",".",".",10,10,10,"_",8,8,"p",7,7,".",".",".",7,8,".",".",".",".",".",".",".",".",".",".",".",".",".",".",".",".",".",".",".",".",10,"."],[".",".",".",".",".",".",".",".",".",".",".",".",".",".","_",".",".",".",".",".",9,7,9,".",".",".",".",".",".",".",".",".",".",".",".",".",".",".",".",".",".",".",".",".",".",".","."],[".",".",".",".",".",".",".",".",".",".",".",".",".",".","_",".",".",".",".",".",".",".",".",".",".",".",".",".",".",".",".",".",".",".",".",".",".",".",".",".",".",".",".",".",".",".","."],[".",".",".",".",".",".",".",".",".",".",".",".",".",".","_",".",".",".",".",".",".",".",".",".",".",".",".",".",".",".",".",".",".",".",".",".",".",".",".",".",".",".",".",".",".",".","."],[".",".",".",".",".",".",".",".",".",".",".",".",".",".","_",".",".",".",".",".",".",".",".",".",".",".",".",".",".",".",".",".",".",".",".",".",".",".",".",".",".",".",".",".",".",".","."]],[[".","_",".","_",".","_",".","_",".","_",".","_",3,"_",2,"_",0,"_",2,"_",3,"_",3,".",2,3,5,"/",7,7,7,"_",7,7,"."],[12,"_",12,"_",12,"_",12,"_",12,"_",12,"_",1,"_",1,"_",1,"_",1,"_",1,"_",1,5,".",".",".",".",".",".",".","_",".",".",3],[11,"_",11,"_",11,"_",11,"_",11,"_",11,"_",0,"_",0,"_",0,"_",0,"_",0,"_",0,".",".",".",".",".",".",".",".","_",".",".","."],[9,"_",9,"_",9,"_",9,"_",9,"_",9,"_",2,"_",".","_",".","_",".","_",".","_",".",".",".",".",".",".",".",".",".","_",".",".","."],[".","_",".","_",".","_",".","_",".","_",".","_",".","_",".","_",".","_",".","_",".","_",".",".",".",".",".",".",".",".",".","_",".",".","."],[".","_",".","_",".","_",".","_",".","_",".","_",".","_",".","_",".","_",".","_",".","_",".",".",".",".",".",".",".",".",".","_",".",".","."]],[[".",".",".",2,3,5,"/",7,"_",7,7,7,".","_",".",".",".",".",".",".",2,3,2,3,5,2,"/",7,7,7,7],[".",3,5,".",".",".",".",".","_",".",".",".",".","_",".",".",3,5,3,5,".",".",".",".",".",".",".",".",".",".","."],[5,".",".",".",".",".",".",".","_",".",".",".",5,"_",4,5,".",".",".",".",".",".",".",".",".",".",".",".",".",".","."],[".",".",".",".",".",".",".",".","_",".",".",".",".","_",".",".",".",".",".",".",".",".",".",".",".",".",".",".",".",".","."],[".",".",".",".",".",".",".",".","_",".",".",".",".","_",".",".",".",".",".",".",".",".",".",".",".",".",".",".",".",".","."],[".",".",".",".",".",".",".",".","_",".",".",".",".","_",".",".",".",".",".",".",".",".",".",".",".",".",".",".",".",".","."]],[[7,"h",8,"p",7,".",7,7,"h",8,"p",7,"_",".",7,8,7,10,8,7,"h",8,"p",7,".","_",".",".",".",".",".","."],[".",".",".",".",".",10,".",".",".",".",".",".","_",10,".",".",".",".",".",".",".",".",".",".",10,"_",8,7,".",".",".","."],[".",".",".",".",".",".",".",".",".",".",".",".","_",".",".",".",".",".",".",".",".",".",".",".",".","_",".",".",9,7,9,7],[".",".",".",".",".",".",".",".",".",".",".",".","_",".",".",".",".",".",".",".",".",".",".",".",".","_",".",".",".",".",".","."],[".",".",".",".",".",".",".",".",".",".",".",".","_",".",".",".",".",".",".",".",".",".",".",".",".","_",".",".",".",".",".","."],[".",".",".",".",".",".",".",".",".",".",".",".","_",".",".",".",".",".",".",".",".",".",".",".",".","_",".",".",".",".",".","."]],[[".",".",".",".",10,9,8,7,"_",".",".",".",".",".",".",".",".","_",".","_",".","_",".","_",".","_","."],[".",".",7,8,".",".",".",".","_",10,8,7,10,8,10,8,7,"_",7,"_",7,"_",7,"_",7,"_",7],[7,9,".",".",".",".",".",".","_",".",".",".",".",".",".",".",".","_",8,"_",8,"_",8,"_",8,"_",8],[".",".",".",".",".",".",".",".","_",".",".",".",".",".",".",".",".","_",9,"_",9,"_",9,"_",9,"_",9],[".",".",".",".",".",".",".",".","_",".",".",".",".",".",".",".",".","_",".","_",".","_",".","_",".","_","."],[".",".",".",".",".",".",".",".","_",".",".",".",".",".",".",".",".","_",".","_",".","_",".","_",".","_","."]]],"numberofstrings":6,"notes":["E","B","G","D","A","E","B"],"capo":0,"stringnotes":["E4","B3","G3","D3","A2","E2"],"comments":["Stave 1:","Stave 2:","Stave 3:","Stave 4:","Stave 5:","Stave 6:","Stave 7:","Stave 8:","Stave 9:"],"timing":[["W","W",null,"W","W",null,"W","W","W","W",null,"W","W","W",null,"W","W","W","W","W",null,"W","W",null,"W","W",null,"W","W","W",null,"W",null,"W","W","W",null,"W","W","W","W",null,"W","W",null,"W","W",null,"W","W","W"],["W","W","W","W",null,"W","W","W","W","W","W","W","W","W","W","W",null,"W","W","W",null,"W","W","W",null,"W","W","W",null,"W","W","W","W","W"],["W","W","W","W",null,"W","W",null,"W","W","W","W","W","W",null,"W","W","W","W","W","W","W","W","W","W","W",null,"W",null,"W","W","W"],["W","W","W","W","W","W","W","W","W","W","W","W","W","W","W","W","W","W","W","W","W","W","W","W","W","W","W","W","W","W","W","W","W","W","W","W","W"],["W","W","W","W","W","W","W","W",null,"W","W","W","W","W",null,"W","W",null,"W","W","W","W","W","W","W","W",null,"W",null,"W","W","W","W","W","W","W","W","W","W",null,"W",null,"W","W","W","W","W"],["W",null,"W",null,"W",null,"W",null,"W","W","W",null,"W",null,"W",null,"W",null,"W",null,"W",null,"W","W","W","W","W",null,"W","W","W",null,"W","W","W"],["W","W","W","W","W","W",null,"W",null,"W","W","W","W",null,"W","W","W","W","W","W","W","W","W","W","W","W",null,"W","W","W","W"],["W",null,"W",null,"W","W","W","W",null,"W",null,"W",null,"W","W","W","W","W","W","W",null,"W",null,"W","W",null,"W","W","W","W","W","W"],["W","W","W","W","W","W","W","W",null,"W","W","W","W","W","W","W","W",null,"W",null,"W",null,"W",null,"W",null,"W"]],"timingvisible":false,"tabcounter":26,"stave":8,"totalstaves":9,"instrument":"6guitar","selectedtuning":"6_standard","version":"13"}

Member for

2 years 6 months
Submitted by bryanrey1095 on Thu, 2020-05-21 13:45