Sound will begin in 5 seconds

een soort ballad

01234567891011121314151617181920212223
E
B
G
D
A
E
B
0 1 2 3 4 5 6 7 8 9 10 11 12 13 14 15 16 17 18 19 20 21 22 23
Song Science #1: How Pros Use 6 Chords to Write Hit Songs
(/) Slide Up  (\) Slide Down  (h) Hammer On  (p) Pull Off  (b) Bend (r) Release (v) Vibrato

Stave 1:

E|-----------------------------------
B|-----------------------------------
G|-----------------------------------
D|-----5--------------3--------------
A|--5-----7--------3-----3--5--------
E|-----------5--7--------------3--5--

Stave 2:

E|--------------------------------------
B|--------------------------------------
G|--------------------------------------
D|-----5-----------------3--------------
A|--5-----5--7--7--5--3-----3--5--5--7--
E|--------------5--3--------------3--5--

Stave 3:

E|-------------------------------------------------------
B|------12----b14--12h14p12----------12------------------
G|--12------12---------------12--12------12--11----------
D|-----------------------------------------------12--14--
A|-------------------------------------------------------
E|-------------------------------------------------------

Stave 4:

E|----
B|----
G|----
D|----
A|----
E|----

Stave 5:

E|----
B|----
G|----
D|----
A|----
E|----

Stave 6:

E|---------------------------------------------------------------------------------------------
B|------12----b14--12h14p12----------12--------------------------------------------------------
G|--12------12---------------12--12------12--11--12h14p12------14--14--16--17--12--12--15--13--
D|---------------------------------------------------------14----------------------------------
A|-------------------------------------------------------------12--12--14--15--10--10--13--11--
E|---------------------------------------------------------------------------------------------

Stave 7:

E|-------------------------------------------------------------12-------------17b17--15------18--17--15--
B|---------------------------------------------------------12----------------------------17--------------
G|------12----------14------12------14p12------12--14--12----------14p12---------------------------------
D|--12------12--14------12------12---------14-----------------------------14-----------------------------
A|-------------------------------------------------------------------------------------------------------
E|-------------------------------------------------------------------------------------------------------

Stave 8:

E|--17--17--15------18--17--17--19b19--17------20--19--17--19b19--17------20--19b19--19--19--19--20--20--
B|--------------17-------------------------19-------------------------19---------------------------------
G|-------------------------------------------------------------------------------------------------------
D|-------------------------------------------------------------------------------------------------------
A|-------------------------------------------------------------------------------------------------------
E|-------------------------------------------------------------------------------------------------------

http://www.guitartabcreator.com
Guitar Tab Creator is intended to store guitar tab created through the tool. It currently does not support in-line text editing. Any text you place in here will be lost. If you need to comment on your tab, please use the "Tab Notes" section located below.