Sound will begin in 5 seconds

drifting out again

01234567891011121314151617181920212223
E
B
G
D
A
E
B
0 1 2 3 4 5 6 7 8 9 10 11 12 13 14 15 16 17 18 19 20 21 22 23
Song Science #1: How Pros Use 6 Chords to Write Hit Songs
(/) Slide Up  (\) Slide Down  (h) Hammer On  (p) Pull Off  (b) Bend (r) Release (v) Vibrato

Stave 1:

E|-----------------------------------------------------------------------------------------------------
B|-----------------------------------------------------------------------------------------------------
G|-----------------------------------------------------------------------------------------------------
D|--------------------5-----------------------5--------------------5-----------------------------------
A|--------5-----------------------5--------------------5--------------7--7--7--7--7--7--7--7--6--6-----
E|--5--8-----5--8--5-----5--8--5-----5--8--5-----5--8-----5--8--5-----5--5--5--5--5--5--5--5--4--4--4--

Stave 2:

E|-------------------------------------------------------------------------------------------------
B|-------------------------------------------------------------------------------------------------
G|-------------------------------------------------------------------------------------------------
D|-----------------4--4--4--5--4--4----------------------------------------------------------------
A|--6--6--6--6--6--2--2--2--2--2--2--5--5--5--4------x--2--2--2--2-------2--2--2--2-------2--2--2--
E|--4--4--4--4--4-----------------3--3--3--3--2--3h5hx--0--0--0--0--3h5--0--0--0--0--3h5--0--0--0--

Stave 3:

E|-------------------------------------------------------------------------------------------
B|-------------------------------------------------------------------------------------------
G|----------------------7--6-----------0--7--6--------------7--6--7--6--7--7--6--------------
D|-------------------------------------------------------------------------------------------
A|--2-------2--2--2--2--5--4--2--2--2--2--5--4--2--2--2--2--5--4--5--4--5--5--4--2--2--2--2--
E|--3--3h5--0--0--0--0--------0--0--0--0--------0--0--0--0-----------------------0--0--0--0--

Stave 4:

E|------------------------------------------------------------------------------------------
B|------------------------------------------------------------------------------------------
G|--11--12--------------11--12--------------11--12--11--12--11--11--12--------------11--10--
D|------------------------------------------------------------------------------------------
A|--9---10--2--2--2--2--9---10--2--2--2--2--9---10--9---10--9---9---10--------------9---8---
E|----------0--0--0--0----------0--0--0--0------------------------------0--0--0--0----------

Stave 5:

E|--------------------------------------------------------------------------------------------------
B|--------------------------------------------------------------------------------------------------
G|--------------9--8--------------9--8--------------------------------------------------------9--8--
D|--------------------------------------------------------------------------------------------------
A|--------------7--6--------------7--6--------------3--------------3-----------3--------------7--6--
E|--0--0--0--0--------0--0--0--0--------0--0--0--0-----0--0--0--0-----0--0--0-----0--0--0--0--------

Stave 6:

E|-----
B|-----
G|-----
D|-----
A|-----
E|--0--

http://www.guitartabcreator.com
Guitar Tab Creator is intended to store guitar tab created through the tool. It currently does not support in-line text editing. Any text you place in here will be lost. If you need to comment on your tab, please use the "Tab Notes" section located below.