Sound will begin in 5 seconds

Snow (Hey Oh) - Red Hot Chili Peppers ~ Tab by Kenny Rajkumar

01234567891011121314151617181920212223
E
B
G
D
A
E
B
0 1 2 3 4 5 6 7 8 9 10 11 12 13 14 15 16 17 18 19 20 21 22 23
Song Science #1: How Pros Use 6 Chords to Write Hit Songs
(/) Slide Up  (\) Slide Down  (h) Hammer On  (p) Pull Off  (b) Bend (r) Release (v) Vibrato

Stave 1:

E|------------------------------------------------------------------
B|------------------------------------------------------------------
G|------------------------------------------------------------------
D|------------------------------------------------------------------
A|--14--14--14--14--14--14--14--14--14--14--14--14--13--13--13--11--
E|------------------------------------------------------------------

Stave 2:

E|--------------------------------------------------------
B|--------------------------------------------------------
G|--------------------------------------------------------
D|----------11v----------11v------------------------------
A|--14--14-------14--14-------14--14--14--13--13--13--11--
E|--------------------------------------------------------

Stave 3:

E|------------------------------------------------------
B|------------------------------------------------------
G|------------------------------------------------------
D|--------------------------------------11--------------
A|--14--13--14--14--13--14--14--13--14------14--13--11--
E|------------------------------------------------------

Stave 4:

E|------------------------------------------------------------------
B|------------------------------------------------------------------
G|------------------------------------------------------------------
D|------------------------------------------------------------------
A|--14--14--14--14--14--14--14--14--14--14--14--14--13--13--13--11--
E|------------------------------------------------------------------

Stave 5:

E|--------------------------------------
B|--------------------------------------
G|--------------------------------------
D|--------------------------------------
A|--14--11--14--14--13--13--11----------
E|------------------------------12--11--

Stave 6:

E|--------------------------------------
B|--------------------------------------
G|--------------------------------------
D|--------------------------------------
A|--14--11--14--14--13--13--11----------
E|------------------------------12--11--

Stave 7:

E|--------------------------------------------------------------
B|--------------------------------------------------------------
G|--------------------------------------------------------------
D|--------------------------------------------------------------
A|--14--14--14--14--14--14--14--14--14--14--14--13--13--13--11--
E|--------------------------------------------------------------

Stave 8:

E|--------------------------------------------------------
B|--------------------------------------------------------
G|--------------------------------------------------------
D|----------11v----------11v------------------------------
A|--14--14-------14--14-------14--14--14--13--13--13--11--
E|--------------------------------------------------------

Stave 9:

E|------------------------------------------------------------------
B|------------------------------------------------------------------
G|------------------------------------------------------------------
D|------------------------------------------------------------------
A|--14--14--14--14--14--14--14--14--14--14--14--14--13--13--13--11--
E|------------------------------------------------------------------

Stave 10:

E|--------------------------------------------------------
B|--------------------------------------------------------
G|--------------------------------------------------------
D|----------11v----------11v------------------------------
A|--14--14-------14--14-------14--14--14--13--13--13--11--
E|--------------------------------------------------------

Stave 11:

E|--------------------------------------
B|--------------------------------------
G|--------------------------------------
D|--------------------------------------
A|--14--11--14--14--13--13--11----------
E|------------------------------12--11--

Stave 12:

E|--------------------------------------
B|--------------------------------------
G|--------------------------------------
D|--------------------------------------
A|--14--11--14--14--13--13--11----------
E|------------------------------12--11--

Stave 13:

E|------------------------------------------------------
B|------------------------------------------------------
G|------------------------------------------------------
D|--------------13--11--------------13--11------11------
A|--14--14--14----------14--14--11----------14------14--
E|------------------------------------------------------

Stave 14:

E|------------------------------------------------------------------
B|------------------------------------------------------------------
G|------------------------------------------------------------------
D|------------------------------------------------------------------
A|--14--14--14--14--14--14--14--14--13--13--13--13--13--13--13--13--
E|------------------------------------------------------------------

Stave 15:

E|--------------------------
B|--------------------------
G|--------------------------
D|--------------------------
A|--14--11--11--14--11------
E|----------------------14--

Stave 16:

E|------------------------------------------------------------------
B|------------------------------------------------------------------
G|------------------------------------------------------------------
D|------------------------------------------------------------------
A|--14--14--14--14--14--14--14--14--14--14--14--14--13--13--13--11--
E|------------------------------------------------------------------

Stave 17:

E|--------------------------------------------------------
B|--------------------------------------------------------
G|--------------------------------------------------------
D|----------11v----------11v------------------------------
A|--14--14-------14--14-------14--14--14--13--13--13--11--
E|--------------------------------------------------------

Stave 18:

E|------------------------------------------------------------------
B|------------------------------------------------------------------
G|------------------------------------------------------------------
D|------------------------------------------------------------------
A|--14--14--14--14--14--14--14--14--14--14--14--14--13--13--13--11--
E|------------------------------------------------------------------

Stave 19:

E|--------------------------------------------------------
B|--------------------------------------------------------
G|--------------------------------------------------------
D|----------11v----------11v------------------------------
A|--14--14-------14--14-------14--14--14--13--13--13--11--
E|--------------------------------------------------------

Stave 20:

E|--------------------------------------
B|--------------------------------------
G|--------------------------------------
D|--------------------------------------
A|--14--11--14--14--13--13--11----------
E|------------------------------12--11--

Stave 21:

E|------------------------------------------------------
B|------------------------------------------------------
G|------------------------------------------------------
D|--------------13--11--------------13--11------11------
A|--14--14--14----------14--14--11----------14------14--
E|------------------------------------------------------

Stave 22:

E|------------------------------------------------------------------
B|------------------------------------------------------------------
G|------------------------------------------------------------------
D|------------------------------------------------------------------
A|--14--14--14--14--14--14--14--14--13--13--13--13--13--13--13--13--
E|------------------------------------------------------------------

Stave 23:

E|--------------------------
B|--------------------------
G|--------------------------
D|--------------------------
A|--14--11--11--14--11------
E|----------------------14--

Stave 24:

E|-------------------------------------------------
B|-------------------------------------------------
G|-------------------------------------------------
D|--------------------------------13--13--13v------
A|---------------------------------------------14--
E|--11--11--14--11--9--14--11--9-------------------

Stave 25:

E|------------------------------------------------------------------
B|------------------------------------------------------------------
G|------------------------------------------------------------------
D|------------------------------------------------------------------
A|------------------------------------------------------------------
E|--14--14--14--14--14--14--14--14--13--13--13--13--13--13--13--13--

Stave 26:

E|--------------------------
B|--------------------------
G|--------------------------
D|--------------------------
A|--14--11--11--14--11------
E|----------------------14--

Stave 27:

E|----------------------------------------
B|----------------------------------------
G|----------------------------------------
D|------------------------13--13--13------
A|------------------------------------14--
E|--11--14--9--14--11--9------------------

http://www.guitartabcreator.com
Guitar Tab Creator is intended to store guitar tab created through the tool. It currently does not support in-line text editing. Any text you place in here will be lost. If you need to comment on your tab, please use the "Tab Notes" section located below.