Sound will begin in 5 seconds

Straight Jacket Bass Tab

01234567891011121314151617181920212223
E
B
G
D
A
E
B
0 1 2 3 4 5 6 7 8 9 10 11 12 13 14 15 16 17 18 19 20 21 22 23
Song Science #1: How Pros Use 6 Chords to Write Hit Songs
(/) Slide Up  (\) Slide Down  (h) Hammer On  (p) Pull Off  (b) Bend (r) Release (v) Vibrato

Stave 1:

E|------------------------------------------
B|------------------------------------------
G|------------------------------------------
D|------------------------------------------
A|------------------------------------------
E|--0h7----------------0h7------------------

Stave 2:

E|----------------------------------------------------
B|----------------------------------------------------
G|----------------------------------------------------
D|----------------------------------------------------
A|-----9--------7-----5----------9--------7-----5-----
E|--7-----7--5-----3-----2----7-----7--5-----3-----2--

Stave 3:

E|--------------------------------------------------------------
B|--------------------------------------------------------------
G|--------------------------------------------------------------
D|--------------------------------------------------------------
A|--------------------------------------------------------------
E|--7----------------7--7----------------7----------------7--7--

Stave 4:

E|----------------------------------------------------------------------------------
B|----------------------------------------------------------------------------------
G|----------------------------------------------------------------------------------
D|----------------------------------------------------------------------------------
A|----------------------------------------------------------------------------------
E|--0----0--0--0----0--0--0----0--0--0----0--3--3----3--3--3----3--2--2----2--2--2--

Stave 5:

E|----------------------------------------------------------------------------------
B|----------------------------------------------------------------------------------
G|----------------------------------------------------------------------------------
D|----------------------------------------------------------------------------------
A|--7----7--7--7----7--7--7----7--7--7----7--10--10----10--10--10----10--9--9----9--
E|----------------------------------------------------------------------------------

Stave 6:

E|--------------------------------------------------------------
B|--------------------------------------------------------------
G|--9--9--9--9--9--9--9--7-----7--9--9--9--9--9--9--9--7-----7--
D|--------------------------9-----------------------------9-----
A|--------------------------------------------------------------
E|--------------------------------------------------------------

Stave 7:

E|-------------------------------------------------
B|-------------------------------------------------
G|-------------------------------------------------
D|-------------------------------------------------
A|-------------------------------------------------
E|--7--7----7--7--7--7--7--7--7--7--7--7--7--7--7--

http://www.guitartabcreator.com
Guitar Tab Creator is intended to store guitar tab created through the tool. It currently does not support in-line text editing. Any text you place in here will be lost. If you need to comment on your tab, please use the "Tab Notes" section located below.