Sound will begin in 5 seconds

Laputa (Electric Guitar)

01234567891011121314151617181920212223
E
B
G
D
A
E
B
0 1 2 3 4 5 6 7 8 9 10 11 12 13 14 15 16 17 18 19 20 21 22 23
Song Science #1: How Pros Use 6 Chords to Write Hit Songs
(/) Slide Up  (\) Slide Down  (h) Hammer On  (p) Pull Off  (b) Bend (r) Release (v) Vibrato

Stave 1:

E|----------9--------9----12--|-------------------|-----------------9--|-------------|--
B|--10--12-------12-----------|--12---------------|--10----9--10-------|--9----------|--
G|----------------------------|----------------9--|--------------------|-------------|--
D|----------------------------|-------------------|--------------------|-------------|--
A|----------------------------|-------------------|--------------------|-------------|--
E|----------------------------|-------------------|--------------------|-------------|--

Stave 2:

E|-----------------------|-------------------|--10----9------------|----------|--
B|--------------------9--|-----------10------|-----------12----10--|--12------|--
G|------9--11--9--11-----|--9----------------|---------------------|----------|--
D|--12-------------------|-------11----------|---------------------|----------|--
A|-----------------------|-------------------|---------------------|----------|--
E|-----------------------|-------------------|---------------------|----------|--

Stave 3:

E|--14------12----12--|-----------------------|------------------12--|--9----------9--|--
B|--------------------|--14--12--10----9--10--|--12----10--12--------|----------------|--
G|--------------------|-----------------------|----------------------|----------------|--
D|--------------------|-----------------------|----------------------|----------------|--
A|--------------------|-----------------------|----------------------|----------------|--
E|--------------------|-----------------------|----------------------|----------------|--

Stave 4:

E|--14------12----12--|-----------------------|---------------------|----
B|--------------------|--14--12--10----9--10--|--12----10--9--------|----
G|--------------------|-----------------------|---------------------|----
D|--------------------|-----------------------|---------------------|----
A|--------------------|-----------------------|---------------------|----
E|--------------------|-----------------------|---------------------|----

Stave 5:

E|--------------------------|--------------------------|--------------------------|--------------
B|--2--------2--------2-----|--2--------2--------2-----|--2--------2--------2-----|--------------
G|--------2--------2--------|--------1--------1--------|--------2--------2--------|--------------
D|-----4--------4--------4--|-----2--------2--------2--|-----0--------0--------0--|--------------
A|--------------------------|--------------------------|--------------------------|--------------
E|--------------------------|--------------------------|--------------------------|--------------

Stave 6:

E|--0--------0--------0-----|--------------------------|--------------------------|--
B|--------------------------|--3--------3--------3-----|--2--------2--------2-----|--
G|--------2--------2--------|--------2--------2--------|--------2--------2--------|--
D|-----2--------2--------2--|-----4--------4--------4--|-----4--------4--------4--|--
A|--------------------------|--------------------------|--------------------------|--
E|--------------------------|--------------------------|--------------------------|--

Stave 7:

E|--------------------------|--------------1------|--------------------------|--------------------------|--
B|--3--------3--------3-----|--2--------2---------|--2--------2--------2-----|--2--------2--------2-----|--
G|--------4--------4--------|--------1------------|--------2--------2--------|--------1--------1--------|--
D|-----4--------4--------4--|-----3---------------|-----4--------4--------4--|-----2--------2--------2--|--
A|--------------------------|---------------------|--------------------------|--------------------------|--
E|--------------------------|---------------------|--------------------------|--------------------------|--

Stave 8:

E|-----------0--------0-----|-----------0--------0-----|--------------------------|--
B|--2-----------------------|--0-----------------------|--3--------3--2--------0--|--
G|--------2--------2--------|--------2--------2--------|--------2-----------1-----|--
D|-----2--------2--------2--|-----2--------2--------2--|-----4-----------3--------|--
A|--------------------------|--------------------------|--------------------------|--
E|--------------------------|--------------------------|--------------------------|--

Stave 9:

E|--------------------------|--------------------------|------------------|--
B|--2--------2--------2-----|--3--------3--2--------2--|--0--------2------|--
G|--------2--------2--------|--------4-----------1-----|--------2---------|--
D|-----4--------1--------4--|-----4-----------3--------|-----4------------|--
A|--------------------------|--------------------------|------------------|--
E|--------------------------|--------------------------|------------------|--

http://www.guitartabcreator.com
Guitar Tab Creator is intended to store guitar tab created through the tool. It currently does not support in-line text editing. Any text you place in here will be lost. If you need to comment on your tab, please use the "Tab Notes" section located below.