Sound will begin in 5 seconds

IU - Obliviate (Electric Guitar)

01234567891011121314151617181920212223
E
B
G
D
A
E
B
0 1 2 3 4 5 6 7 8 9 10 11 12 13 14 15 16 17 18 19 20 21 22 23
Song Science #1: How Pros Use 6 Chords to Write Hit Songs
(/) Slide Up  (\) Slide Down  (h) Hammer On  (p) Pull Off  (b) Bend (r) Release (v) Vibrato

Stave 1:

E|-------------------------|-----------------|----------------------------|--
B|-------------------------|-----------------|----------------------------|--
G|-----9--9-------9--9-----|-----9--9--------|-----9--9----------9--9-----|--
D|--7----------7-----------|--7--------------|--7----------7--7-----------|--
A|----------------------7--|-----------------|-------------------------7--|--
E|-------------------------|-----------------|----------------------------|--

Stave 2:

E|----------------------------|----------------------------|-----10--11--12----12--|--
B|----------------------------|----------------------------|-----10--11--12----12--|--
G|----------------------------|-----7--7----------7--7-----|-----------------------|--
D|-----7--7----------7--7-----|--5----------5--5--------5--|-----------------------|--
A|--5----------5--5--------5--|----------------------------|--7--------------------|--
E|----------------------------|----------------------------|-----------------------|--

Stave 3:

E|--15--------------------------------------|----------------------|------|------|--
B|------13----13------13----13------13--13--|--15--------12--------|------|------|--
G|----------------14------------14----------|----------------------|------|------|--
D|------------------------------------------|----------------------|------|------|--
A|------------------------------------------|----------------------|------|------|--
E|------------------------------------------|----------------------|------|------|--

Stave 4:

E|--------------------|--------------------|------|------|------|------|------|------|--
B|--3--------1--------|--------------------|------|------|------|------|------|------|--
G|--2--------2--------|--4--------3--------|------|------|------|------|------|------|--
D|--------------------|--3--------3--------|------|------|------|------|------|------|--
A|--------------------|--------------------|------|------|------|------|------|------|--
E|--------------------|--------------------|------|------|------|------|------|------|--

Stave 5:

E|-----------------|------------------|---------------------|-------------|------|------|--
B|-----------------|------------------|------------------1--|--0----------|------|------|--
G|--------------0--|------------------|--2------------2-----|-------------|------|------|--
D|--------1--2-----|--3------------0--|-----3------3--------|-------------|------|------|--
A|-----------------|------------------|---------------------|-------------|------|------|--
E|-----------------|------------------|---------------------|-------------|------|------|--

Stave 6:

E|---------------------------|--------------|--------------|--------------|----------------|--
B|--0--0--0------------------|--------------|--------------|--------------|----------------|--
G|-----------2--2--2--1------|--------------|--------------|--------------|----------------|--
D|---------------------------|--2--------5--|--4--------0--|--2--------5--|--7------4------|--
A|---------------------------|--------------|--------------|--------------|----------------|--
E|---------------------------|--0--------3--|--2-----------|--0--------3--|--5------2------|--

Stave 7:

E|------|----------------------|------------------------------|--6----5-------------|-----------------|--
B|------|-------------0--3--1--|------------3--2--5--3--6--5--|------------------5--|----3-----1------|--
G|------|-------0--2-----------|--3------2--------------------|----------6--7-------|-------2---------|--
D|------|----3-----------------|------------------------------|---------------------|-----------------|--
A|------|----------------------|------------------------------|---------------------|-----------------|--
E|------|----------------------|------------------------------|---------------------|-----------------|--

Stave 8:

E|-----------------|--0----------5--|--4---------7------|-----------4--4--4--7------|--
B|--0----0---------|----------------|-------5-----------|--6--6--6------------------|--
G|----------3------|----------------|-------------------|---------------------------|--
D|-----------------|----------------|-------------------|---------------------------|--
A|-----------------|----------------|-------------------|---------------------------|--
E|-----------------|----------------|-------------------|---------------------------|--

Stave 9:

E|--7--8----7--8--15--|--15--13----12--13--8--|--8--10----7--10--13--|--13--12--10--7--|------
B|--------------------|-----------------------|----------------------|--------------9--|------
G|--7--9----7--9--16--|--16--14----12--14--9--|--9--10----7--10--14--|--14--12--10-----|------
D|--------------------|-----------------------|----------------------|-----------------|------
A|--------------------|-----------------------|----------------------|-----------------|------
E|--------------------|-----------------------|----------------------|-----------------|------

Stave 10:

E|--8------12----|--15------14--13------|--10------7----|--10----10-----|--------|--
B|--8------------|--13------------------|--10-----------|--10----10--9--|--------|--
G|--9------------|--14------------------|--10-----------|--9-----9------|--------|--
D|--7------------|--12------------------|---------------|--10-----------|--------|--
A|---------------|----------------------|--10-----------|---------------|--------|--
E|---------------|----------------------|---------------|---------------|--------|--

Stave 11:

E|--7---------------------------|--7----------|--
B|-------10--7--8------------8--|-------------|--
G|------------------------9-----|-------------|--
D|-----------------9--10--------|-------------|--
A|------------------------------|-------------|--
E|------------------------------|-------------|--

http://www.guitartabcreator.com
Guitar Tab Creator is intended to store guitar tab created through the tool. It currently does not support in-line text editing. Any text you place in here will be lost. If you need to comment on your tab, please use the "Tab Notes" section located below.