Sound will begin in 5 seconds

IU - Obliviate (Electric Guitar)

01234567891011121314151617181920212223
E
B
G
D
A
E
B
0 1 2 3 4 5 6 7 8 9 10 11 12 13 14 15 16 17 18 19 20 21 22 23
Song Science #1: How Pros Use 6 Chords to Write Hit Songs
(/) Slide Up  (\) Slide Down  (h) Hammer On  (p) Pull Off  (b) Bend (r) Release (v) Vibrato

Stave 1:

E|-------------------------|-----------------|----------------------------|--
B|-------------------------|-----------------|----------------------------|--
G|-----9--9-------9--9-----|-----9--9--------|-----9--9----------9--9-----|--
D|--7----------7-----------|--7--------------|--7----------7--7-----------|--
A|----------------------7--|-----------------|-------------------------7--|--
E|-------------------------|-----------------|----------------------------|--

Stave 2:

E|----------------------------|----------------------------|-----10--11--12----12--|--
B|----------------------------|----------------------------|-----10--11--12----12--|--
G|----------------------------|-----7--7----------7--7-----|-----------------------|--
D|-----7--7----------7--7-----|--5----------5--5--------5--|-----------------------|--
A|--5----------5--5--------5--|----------------------------|--7--------------------|--
E|----------------------------|----------------------------|-----------------------|--

Stave 3:

E|--15--------------------------------------|----------------------|----------|--------|--
B|------13----13------13----13------13--13--|--15--------12--------|----------|--------|--
G|----------------14------------14----------|----------------------|----------|--------|--
D|------------------------------------------|----------------------|----------|--------|--
A|------------------------------------------|----------------------|----------|--------|--
E|------------------------------------------|----------------------|----------|--------|--

Stave 4:

E|--------------------|--------------------|------|------|------|------|------|------|--
B|--3--------1--------|--------------------|------|------|------|------|------|------|--
G|--2--------2--------|--4--------3--------|------|------|------|------|------|------|--
D|--------------------|--3--------3--------|------|------|------|------|------|------|--
A|--------------------|--------------------|------|------|------|------|------|------|--
E|--------------------|--------------------|------|------|------|------|------|------|--

Stave 5:

E|--
B|--
G|--
D|--
A|--
E|--

Stave 6:

E|--
B|--
G|--
D|--
A|--
E|--

http://www.guitartabcreator.com
Guitar Tab Creator is intended to store guitar tab created through the tool. It currently does not support in-line text editing. Any text you place in here will be lost. If you need to comment on your tab, please use the "Tab Notes" section located below.