Sound will begin in 5 seconds

Hey Jude (Electric)

01234567891011121314151617181920212223
E
B
G
D
A
E
B
0 1 2 3 4 5 6 7 8 9 10 11 12 13 14 15 16 17 18 19 20 21 22 23
Song Science #1: How Pros Use 6 Chords to Write Hit Songs
(/) Slide Up  (\) Slide Down  (h) Hammer On  (p) Pull Off  (b) Bend (r) Release (v) Vibrato

Stave 1:

E|---------|-------------------|---------------|--------8----8--7-----|------------------|--
B|------8--|---------8--8--10--|---------------|-------------------8--|--10----8---------|--
G|---------|--9----------------|--7------7--9--|--10------------------|-----------10--9--|--
D|---------|-------------------|---------------|----------------------|------------------|--
A|---------|-------------------|---------------|----------------------|------------------|--
E|---------|-------------------|---------------|----------------------|------------------|--

Stave 2:

E|------|------|--------------|--------------|--------------|--------------|------------------
B|------|------|-----------1--|-----------1--|-----------1--|-----------3--|------------------
G|------|------|--------0-----|--------3-----|--------2-----|--------1-----|------------------
D|------|------|-----2--------|-----2--------|-----3--------|-----3--------|------------------
A|------|------|--3-----------|--3-----------|--3-----------|--3-----------|------------------
E|------|------|--------------|--------------|--------------|--------------|------------------

Stave 3:

E|---------|-------------------|---------------|-------------------------|--------------------------|--
B|------8--|------------8--10--|---------------|------------------8------|-----------8-------8--10--|--
G|---------|--9------9---------|--7------7--9--|--10----10----10-----10--|--9----10-------9---------|--
D|---------|-------------------|---------------|-------------------------|--------------------------|--
A|---------|-------------------|---------------|-------------------------|--------------------------|--
E|---------|-------------------|---------------|-------------------------|--------------------------|--

Stave 4:

E|--8------8----10--8--10--|--12------15------15--|--13------13--------12------|----------|--
B|-------------------------|----------------------|------------------------15--|--13------|--
G|-------------------------|----------------------|----------------13----------|----------|--
D|-------------------------|----------------------|----------------------------|----------|--
A|-------------------------|----------------------|----------------------------|----------|--
E|-------------------------|----------------------|----------------------------|----------|--

Stave 5:

E|-------------|---------------------|--------------------|-----------------------|------|------|--
B|-------------|-------1-------1--3--|----1---------------|----------1------------|------|------|--
G|----------0--|--2-------2----------|-------2----0-------|--0----2-------2----0--|------|------|--
D|----2--3-----|---------------------|-----------------3--|-----------------------|------|------|--
A|-------------|---------------------|--------------------|-----------------------|------|------|--
E|-------------|---------------------|--------------------|-----------------------|------|------|--

Stave 6:

E|------10--12--13----13--|----
B|------------------------|----
G|------------------------|----
D|------------------------|----
A|------------------------|----
E|------------------------|----

Stave 7:

E|-------------|---------------------|---------------------|---------------|--
B|-------------|-------1-------1-----|----1----------------|---------------|--
G|----------0--|--2-------2----------|-------2----0--0-----|--0------------|--
D|----2--3-----|------------------3--|------------------3--|---------3--0--|--
A|-------------|---------------------|---------------------|---------------|--
E|-------------|---------------------|---------------------|---------------|--

http://www.guitartabcreator.com
Guitar Tab Creator is intended to store guitar tab created through the tool. It currently does not support in-line text editing. Any text you place in here will be lost. If you need to comment on your tab, please use the "Tab Notes" section located below.