Sound will begin in 5 seconds

Casker - Just This Much (Electric Solo)

01234567891011121314151617181920212223
E
B
G
D
A
E
B
0 1 2 3 4 5 6 7 8 9 10 11 12 13 14 15 16 17 18 19 20 21 22 23
Song Science #1: How Pros Use 6 Chords to Write Hit Songs
(/) Slide Up  (\) Slide Down  (h) Hammer On  (p) Pull Off  (b) Bend (r) Release (v) Vibrato

Stave 1:

E|---------------------------------4--|--6--8------8--9--8--|-----------------|-----------------|--
B|---------------------------5--6-----|---------------------|--------8--9--8--|--------6--8--9--|--
G|------------------------5-----------|------------5--6--5--|-----------------|-----------------|--
D|--5-------5----------6--------------|---------------------|--------5--6--5--|--------3--5--6--|--
A|-------8-------7--8-----------------|---------------------|-----------------|-----------------|--
E|------------------------------------|---------------------|-----------------|-----------------|--

Stave 2:

E|------11----8----------------|---------------------------------|---------------------9---------|--
B|---------------9-------------|---------------------------------|-------------11--12-----11--9--|--
G|------------------10--8--10--|--6----5--6-----5----------6--8--|--9--10--12--------------------|--
D|-----------------------------|-------------8-------7--8--------|-------------------------------|--
A|-----------------------------|---------------------------------|-------------------------------|--
E|-----------------------------|---------------------------------|-------------------------------|--

Stave 3:

E|--11--10--9--8------------------|--13------|--
B|----------------11--9--8--------|----------|--
G|--------------------------10----|----------|--
D|--------------------------------|----------|--
A|--------------------------------|----------|--
E|--------------------------------|----------|--

http://www.guitartabcreator.com
Guitar Tab Creator is intended to store guitar tab created through the tool. It currently does not support in-line text editing. Any text you place in here will be lost. If you need to comment on your tab, please use the "Tab Notes" section located below.