Sound will begin in 5 seconds

Stairway To Heaven Solo

01234567891011121314151617181920212223
E
B
G
D
A
E
B
0 1 2 3 4 5 6 7 8 9 10 11 12 13 14 15 16 17 18 19 20 21 22 23
Song Science #1: How Pros Use 6 Chords to Write Hit Songs
(/) Slide Up  (\) Slide Down  (h) Hammer On  (p) Pull Off  (b) Bend (r) Release (v) Vibrato

Stave 1:

E|--|------5----------------------------
B|--|---------8p5-----------------------
G|--|--b7----------7p5-----7p5----------
D|--|-------------------7-------7p5-----
A|--|--------------------------------8--
E|--|-----------------------------------

Stave 2:

E|--5--8--8--|--b8p5--------8--10p8------------------
B|-----------|--------8/10-----------10p8------8h10--
G|-----------|-----------------------------10--------
D|-----------|---------------------------------------
A|-----------|---------------------------------------
E|-----------|---------------------------------------

Stave 3:

E|--|---------5-----------------------------------------------
B|--|------5-----8p5------------------------------------------
G|--|--b7-------------7p5-----7p5---------------5-----5--5p0--
D|--|----------------------7-------7p5-----5h7-----7----------
A|--|-----------------------------------7---------------------
E|--|---------------------------------------------------------

Stave 4:

E|--5---------------------------------
B|-----8p5----------------------------
G|----------7p5-----7p5---------------
D|---------------7-------7p5--7p5-----
A|---------------------------------8--
E|------------------------------------

Stave 5:

E|-----------------------------------------------------
B|-------------------------------------------------13--
G|--------------------------------------12--12h14------
D|--------10--12--10------10--12v--/14-----------------
A|--9/12--------------12-------------------------------
E|-----------------------------------------------------

Stave 6:

E|--|-------------------------|--b15--15p13--
B|--|--b15--15p13--15p13------|--------------
G|--|---------------------14--|--------------
D|--|-------------------------|--------------
A|--|-------------------------|--------------
E|--|-------------------------|--------------

Stave 7:

E|--|------------------
B|--|--b15p13------13--
G|--|----------14------
D|--|------------------
A|--|------------------
E|--|------------------

Stave 8:

E|--|--b15--12--15--12------------------------------------|---15--|--------------
B|--|-------------------15--13------13h15p13------13--15--|--b15--|--b15p13------
G|--|---------------------------14------------14----------|-------|----------14--
D|--|-----------------------------------------------------|-------|--------------
A|--|-----------------------------------------------------|-------|--------------
E|--|-----------------------------------------------------|-------|--------------

Stave 9:

E|--|---15--17--15--|--------------------------|-------
B|--|--b15----------|--b15--13h15--13------13--|--b15--
G|--|---------------|------------------14------|-------
D|--|---------------|--------------------------|-------
A|--|---------------|--------------------------|-------
E|--|---------------|--------------------------|-------

Stave 10:

E|--|-------|-------------------------
B|--|-------|-------------------------
G|--|--b14--|--b14--14--12h14--12h14--
D|--|-------|-------------------------
A|--|-------|-------------------------
E|--|-------|-------------------------

Stave 11:

E|--|--------------------------|--------------
B|--|-------5----------5-------|--------------
G|--|--b10-----7p5--7-----7p5--|--b7--7p5-----
D|--|--------------------------|-----------7--
A|--|--------------------------|--------------
E|--|--------------------------|--------------

Stave 12:

E|---------20p17------|--b20--
B|--15/17---------17--|-------
G|--------------------|-------
D|--------------------|-------
A|--------------------|-------
E|--------------------|-------

http://www.guitartabcreator.com
Guitar Tab Creator is intended to store guitar tab created through the tool. It currently does not support in-line text editing. Any text you place in here will be lost. If you need to comment on your tab, please use the "Tab Notes" section located below.