Sound will begin in 5 seconds

Rock With You Vocals Guitar Cover

01234567891011121314151617181920212223
E
B
G
D
A
E
B
0 1 2 3 4 5 6 7 8 9 10 11 12 13 14 15 16 17 18 19 20 21 22 23
Song Science #1: How Pros Use 6 Chords to Write Hit Songs
(/) Slide Up  (\) Slide Down  (h) Hammer On  (p) Pull Off  (b) Bend (r) Release (v) Vibrato

Stave 1:

E|---------3/5-----------5----------------------------3/5----------
B|-------3-----7---5-7-----5/7---------5-8----------3-----7----5-7-
G|-2-2/4---------7-6-5---------7-------6-9----2-2/4---------7--6-5-
D|-----------------7-7-----------7/9-7-7-10--------------------7-7-
A|-----------------------------------------------------------------
E|-----------------------------------------------------------------

Stave 2:

E|---------7-5-5--5-5-----------------------------------------------------------
B|-----5-7---3-3--3-3-----------------------------------------------------------
G|-7-7-------4-4--4-4----7--7-9---------------------7-7-9-----------------------
D|-----------5-5--5-5-----------9--9-7-----7-9-7----------9-7--7--------7-9-7---
A|-------------------------------------9-9-------9---------------10-9-9-------9-
E|------------------------------------------------------------------------------

Stave 3:

E|----------------------------------------------------------------------
B|----------------------------------------10-10-8-10-8-7---------8-10---
G|-7-7-9------7-7-9-----7---7---7-9-11--7-----------------7-9-11--------
D|-------9p7--------9-7-------9-----------------------------------------
A|----------------------------------------------------------------------
E|----------------------------------------------------------------------

http://www.guitartabcreator.com
Guitar Tab Creator is intended to store guitar tab created through the tool. It currently does not support in-line text editing. Any text you place in here will be lost. If you need to comment on your tab, please use the "Tab Notes" section located below.