Sound will begin in 5 seconds

The Rising (Shadows of London)

01234567891011121314151617181920212223
E
B
G
D
A
E
B
0 1 2 3 4 5 6 7 8 9 10 11 12 13 14 15 16 17 18 19 20 21 22 23
Song Science #1: How Pros Use 6 Chords to Write Hit Songs
(/) Slide Up  (\) Slide Down  (h) Hammer On  (p) Pull Off  (b) Bend (r) Release (v) Vibrato

Stave 1:

E|---------
B|---------
G|---------
D|---------
A|---------
E|-0-0-0-0-

Stave 2:

E|-------------------------------------------------
B|-------------------------------------------------
G|-4-5---4-4-5---4-4-5---4-4-5---4-4-5---4-4---4-4-
D|-----4-------4-------4-------4-------4-----4-----
A|-------------------------------------------------
E|-------------------------------------------------

Stave 3:

E|-----------------------------------------------------------------
B|-----------------------------------------------------------------
G|-----------------------------------------------------------------
D|-------------------------------0-------------------------------0-
A|---0---0---0---0---0---0---0-------0---0---0---0---0---0---0-----
E|-0---0---0---0---0---0---0---0---0---0---0---0---0---0---0---0---

Stave 4:

E|-3---5---3-3---5---3-3---5---3-3---5---3-3---5---3-
B|---4---4-----4---4-----4---4-----4---4-----4---4---
G|---------------------------------------------------
D|---------------------------------------------------
A|---------------------------------------------------
E|---------------------------------------------------

Stave 5:

E|---------------------------------------------------------------------
B|---------------------------------------------------------------------
G|-----------------------------------2-----2-------------------------2-
D|-----2-----2-----2-----2-----2-----------------2-----2-----2-----2---
A|---2-----2-----2-----2-----2-----2-----2-----2-----2-----2-----2-----
E|-2-----2-----2-----2-----2-----2-----2-----2-----2-----2-----2-------

Stave 6:

E|-6-7---8-9-8-10-2---4-5-6-7-8-0-0-0-0-
B|-----7------------3-------------------
G|--------------------------------------
D|--------------------------------------
A|--------------------------------------
E|--------------------------------------

Stave 7:

E|-------------------------------------1-2-2-2-1-2-1-2-2-2-1-2-
B|-------------------------------------------------------------
G|-------------------------------------------------------------
D|-------------------------------------------------------------
A|---1---0---0---0---0---0---0---0---1-------------------------
E|-0---0---0---0---0---0---0---0---0---------------------------

Stave 8:

E|-------------------
B|-------------------
G|-3-3-3-3-3-3-3-3-3-
D|-2-2-2-2-2-2-2-2-2-
A|-------------------
E|-------------------

Stave 9:

E|---------------------------------------
B|---------------------------------------
G|---------------------------------------
D|---------------------------------------
A|-0-0-0-0-0-0-0-0-0-0-0-0-0-0-0-0-0-0-0-
E|-0-0-0-0-0-0-0-0-0-0-0-0-0-0-0-0-0-0-0-

Stave 10:

E|---------0-0-0-0-0-
B|---------0-0-0-0-0-
G|-1-1-1-1-0-0-0-0-0-
D|---------0-0-0-0---
A|---------0-0-0-0-0-
E|---------0-0-0-0-0-

http://www.guitartabcreator.com
Guitar Tab Creator is intended to store guitar tab created through the tool. It currently does not support in-line text editing. Any text you place in here will be lost. If you need to comment on your tab, please use the "Tab Notes" section located below.