Sound will begin in 5 seconds

Black sheep revolution (SOL)

01234567891011121314151617181920212223
E
B
G
D
A
E
B
0 1 2 3 4 5 6 7 8 9 10 11 12 13 14 15 16 17 18 19 20 21 22 23
Song Science #1: How Pros Use 6 Chords to Write Hit Songs
(/) Slide Up  (\) Slide Down  (h) Hammer On  (p) Pull Off  (b) Bend (r) Release (v) Vibrato

Stave 1:

E|--------------
B|--------------
G|--------------
D|--7--7--7--7--
A|--7--7--7--7--
E|--7--7--7--7--

Stave 2:

E|--------------------------------------
B|--------------------------------------
G|--------------------------------------
D|--5--7--6--5--7--6--5--7--6--5--7--6--
A|--5--7--6--5--7--6--5--7--6--5--7--6--
E|--5--7--6--5--7--6--5--7--6--5--7--6--

Stave 3:

E|--------------------------------------------------
B|--------------------------------------------------
G|--0--0--0--0--0--0--0--0--0--0--0--0--0--0--0--0--
D|--0--0--0--0--0--0--0--0--0--0--0--0--0--0--0--0--
A|--------------------------------------------------
E|--------------------------------------------------

Stave 4:

E|--4--5--4--5--4--5--4--5--4--5--4--5--
B|--4--5--4--5--4--5--4--5--4--5--4--5--
G|--------------------------------------
D|--------------------------------------
A|--------------------------------------
E|--------------------------------------

Stave 5:

E|--4--1-----------5--6--6--6--8--7--8--7--9-------------------------
B|--------------4-----------------------------10---------------------
G|-----------3----------------------------------------0--0--0--0--0--
D|--------2---------------------------------------10-----------------
A|-------------------------------------------------------------------
E|-------------------------------------------------------------------

Stave 6:

E|--4--4--4--4--
B|--------------
G|--------------
D|--------------
A|--------------
E|--------------

Stave 7:

E|--------------------------------------
B|--------------------------------------
G|--------------------------------------
D|--5--7--6--5--7--6--5--7--6--5--7--6--
A|--5--7--6--5--7--6--5--7--6--5--7--6--
E|--5--7--6--5--7--6--5--7--6--5--7--6--

Stave 8:

E|--------------------------------
B|--------------------------------
G|--------------------------------
D|--1--1--1--1--1--1--1--1--1--1--
A|--2--2--2--2--2--2--2--2--2-----
E|-----------------------------2--

Stave 9:

E|-----------6-----------------9---------2-----3-----4--2-----3-----4--2-----3-----4--
B|--------5-----8--8--8--8--8---------------2-----3--------2-----3--------2-----3-----
G|-----6--------------------------10--------------------------------------------------
D|--5---------------------------------9-----------------------------------------------
A|------------------------------------------------------------------------------------
E|------------------------------------------------------------------------------------

Stave 10:

E|-----2-----3--4-----2-----3--4-----2-----3--4-----2-----3--4-----2-----3--4--
B|--2-----3--------2-----3--------2-----3--------2-----3--------2-----3--------
G|-----------------------------------------------------------------------------
D|-----------------------------------------------------------------------------
A|-----------------------------------------------------------------------------
E|-----------------------------------------------------------------------------

Stave 11:

E|--4--4--4--4--
B|--------------
G|--------------
D|--------------
A|--------------
E|--------------

Stave 12:

E|--5--7--6--5--7--6--5--7--6--5--7--6--5--7--6--5--7--6--5--7--6--
B|--5--7--6--5--7--6-----7--6--5--7--6--5--7--6-----7--6--5--7--6--
G|--5--7--6--5--7--6--5--7--6--5--7--6--5--7--6--5--7--6--5--7--6--
D|-----------------------------------------------------------------
A|-----------------------------------------------------------------
E|-----------------------------------------------------------------

Stave 13:

E|--5--5--5--5--7--6--5--
B|--5--5--5--5--7--6--5--
G|--5--5--5--5--7--6-----
D|--------------------5--
A|-----------------------
E|-----------------------

http://www.guitartabcreator.com
Guitar Tab Creator is intended to store guitar tab created through the tool. It currently does not support in-line text editing. Any text you place in here will be lost. If you need to comment on your tab, please use the "Tab Notes" section located below.