Sound will begin in 5 seconds

Brahm's Lullaby (Cradle Song) for Solo Bass Guitar Version 2

01234567891011121314151617181920212223
E
B
G
D
A
E
B
0 1 2 3 4 5 6 7 8 9 10 11 12 13 14 15 16 17 18 19 20 21 22 23
Song Science #1: How Pros Use 6 Chords to Write Hit Songs
(/) Slide Up  (\) Slide Down  (h) Hammer On  (p) Pull Off  (b) Bend (r) Release (v) Vibrato

Stave 1:

E|------------------------------------------------------------------------------------------
B|------------------------------------------------------------------------------------------
G|----------------------------------17--16--14--14------------------------------------------
D|--14--14--17--14--14--17--14--17------------------17------14--15----------14--15------15--
A|----------15----------15----------15----------14------17------14--17--17------14--17------
E|------------------------------------------------------------------------------------------

Stave 2:

E|------------------------------------------------------------------------------------------
B|------------------------------------------------------------------------------------------
G|--16--14------16--17----------17--14--------------------------14--------------17--14------
D|----------17--------------------------15--17--14------15--17--15--17------------------15--
A|------------------15--15--15--15----------15------15--17--19------15--15--15--15----------
E|------------------------------------------------------------------------------------------

Stave 3:

E|------------------------------
B|------------------------------
G|--------------------------10--
D|--17--14------15--14--12--7---
A|--15------15--12--10--8---8---
E|------------------------------

Stave 4:

E|--
B|--
G|--
D|--
A|--
E|--

http://www.guitartabcreator.com
Guitar Tab Creator is intended to store guitar tab created through the tool. It currently does not support in-line text editing. Any text you place in here will be lost. If you need to comment on your tab, please use the "Tab Notes" section located below.