Sound will begin in 5 seconds

Brahm's Lullaby (Cradle Song) for Solo Bass Guitar

01234567891011121314151617181920212223
E
B
G
D
A
E
B
0 1 2 3 4 5 6 7 8 9 10 11 12 13 14 15 16 17 18 19 20 21 22 23
Song Science #1: How Pros Use 6 Chords to Write Hit Songs
(/) Slide Up  (\) Slide Down  (h) Hammer On  (p) Pull Off  (b) Bend (r) Release (v) Vibrato

(W|WW) Whole (H|HH) Half (Q|QQ) Quarter (E|EE) 8th (S|SS) 16th (T|TT) 32nd (X|XX) 64th

Stave 1:
t: E E WW E E HH E E QQ Q Q Q QQ EE E Q QQ EE E H EE E E E
E|----------------------------------------------------------------------------------
B|----------------------------------------------------------------------------------
G|----------------------------------------------------------------------------------
D|----------------------------10--9--7--7-------------------------------------9--7--
A|--7--7--10--7--7--10--7--8---------------10------7--8--10--10--7--8------8--------
E|--------8---------8---------8---------7------10-----7-------------7--10-----------

Stave 2:
t: QQ Q HH E E HH E E HH E E QQ QQ Q HH E E HH E E HH E E Q
E|-----------------------------------------------------------------------------------
B|-----------------------------------------------------------------------------------
G|-----------------------------------------------------------------------------------
D|------9--10--------10--7-----------------------7------------10--7---------------7--
A|--10----------------------8--10--7-----8---10--8--10---------------8--10--7-----8--
E|---------8---8--8--8---------8------8--10--12-----8---8--8--8---------8------8-----

Stave 3:
t: Q Q Q
E|-----------
B|-----------
G|--------5--
D|--5--3--2--
A|--7--5--3--
E|-----------

http://www.guitartabcreator.com
Guitar Tab Creator is intended to store guitar tab created through the tool. It currently does not support in-line text editing. Any text you place in here will be lost. If you need to comment on your tab, please use the "Tab Notes" section located below.