Sound will begin in 5 seconds

My Love- Part 3

01234567891011121314151617181920212223
E
B
G
D
A
E
B
0 1 2 3 4 5 6 7 8 9 10 11 12 13 14 15 16 17 18 19 20 21 22 23
Song Science #1: How Pros Use 6 Chords to Write Hit Songs
(/) Slide Up  (\) Slide Down  (h) Hammer On  (p) Pull Off  (b) Bend (r) Release (v) Vibrato

Stave 1:

E|--0----0--0----3----3--3----7----7--7----3----3--3--|--
B|--0------------5------------8------------5----------|--
G|--0------------4------------9------------4----------|--
D|----------------------------------------------------|--
A|----------------------------------------------------|--
E|----------------------------------------------------|--

Stave 2:

E|-----------------------------------------2----2--2--|--
B|-------------0----0--0------0----3--3----3----------|--
G|-----------------------------------------4----------|--
D|--0--4--4----4--------------4-----------------------|--
A|--2----------5--------------------------------------|--
E|----------------------------------------------------|--

Stave 3:

E|------------|------------|------------------------------|--
B|------------|------------|-------0--0--0--0----0--------|--
G|------------|------------|--0------------------0--0--0--|--
D|------------|------------|--2------------------2--------|--
A|------------|------------|------------------------------|--
E|------------|------------|------------------------------|--

Stave 4:

E|-----------------------------------------|------------------------------|--
B|-----------------------------------------|------------------------------|--
G|--2------2--2----2--2------2-------------|-----2--2--2----2----2--------|--
D|--4------------------------4----4--4--4--|--4------------------4--4--4--|--
A|--5------------------------5-------------|--5------------------5--------|--
E|-----------------------------------------|------------------------------|--

Stave 5:

E|--------------------------------------|-----------------------------------|--
B|--------------------------------------|-----0--0----0--0----0-------------|--
G|--0------0--0----0--0------2----------|--0------------------0--0----0--0--|--
D|--2------------------------2----2--2--|--2------------------2-------------|--
A|--3------------------------3----------|-----------------------------------|--
E|--------------------------------------|-----------------------------------|--

Stave 6:

E|-------------------------------|---------------------------------------|--
B|-------------------------------|---------------------------------------|--
G|--2--2--2-----2----2--2--2-----|-------2--2----2----2--2----2----------|--
D|--4--------4--4-------------4--|--4-------------------------4----4--5--|--
A|--5-----------5----------------|--5-------------------------5----------|--
E|-------------------------------|---------------------------------------|--

Stave 7:

E|----------------------------------------|----
B|----------------------------0-----------|----
G|--2----2--2----2----2--2-------2--2--0--|----
D|--2-------------------------2-----------|----
A|--3-------------------------3-----------|----
E|----------------------------------------|----

Stave 8:

E|--------------------------------|--------------------------
B|--------------0--------------0--|-----------------------0--
G|---------2-------0--------------|--2------0----2-----------
D|--2------4----------2-----------|--4------2----4-----------
A|--2------5----------------------|--5------3----5-----------
E|--3-----------------------------|--------------------------

Stave 9:

E|-----------------------------|-----0----0--0--------------------|--
B|-----------------------0--0--|--0-------------3--3--0-----------|--
G|--2------0------2------------|--2----------------------2--2--0--|--
D|--4------2------4------------|--2-------------------2-----------|--
A|--5------3------5------------|----------------------3-----------|--
E|-----------------------------|----------------------------------|--

Stave 10:

E|--------------------|---------------------------2--2--2--|--
B|--------0-----------|-------0--0----0--3--3--3--3--------|--
G|--0--2-----2--0-----|------------------4--------4--------|--
D|--2-----2--------4--|--4----4----------4-----------------|--
A|--2-----2-----------|--5----5----------------------------|--
E|--------------------|------------------------------------|--

Stave 11:

E|-----------------------|-----0----0--0----------------------|--
B|-----------------0--0--|--3-------------3--0----------------|--
G|--2--0-----------------|--2-------------------2----2--2-----|--
D|--4-----4--2--0--------|--2----------------2-------------2--|--
A|--5-----5--------------|-------------------3----------------|--
E|--------7--------------|------------------------------------|--

Stave 12:

E|-----------------|-----------------|--------------------|--
B|--------0--3--0--|-----------------|--------------------|--
G|--0--2--0--------|--2------2----0--|--2--0--------------|--
D|--2-----2--------|--4------4-------|--4-----4--2--0--2--|--
A|--2--------------|--5------5-------|--5-----5-----------|--
E|-----------------|-----------------|--------7-----------|--

Stave 13:

E|----------------------5--|--
B|----------------------5--|--
G|----------------------5--|--
D|--2------2----0----------|--
A|--3------3-------2-------|--
E|--5------5---------------|--

http://www.guitartabcreator.com
Guitar Tab Creator is intended to store guitar tab created through the tool. It currently does not support in-line text editing. Any text you place in here will be lost. If you need to comment on your tab, please use the "Tab Notes" section located below.