Sound will begin in 5 seconds

My Love

01234567891011121314151617181920212223
E
B
G
D
A
E
B
0 1 2 3 4 5 6 7 8 9 10 11 12 13 14 15 16 17 18 19 20 21 22 23
Song Science #1: How Pros Use 6 Chords to Write Hit Songs
(/) Slide Up  (\) Slide Down  (h) Hammer On  (p) Pull Off  (b) Bend (r) Release (v) Vibrato

Stave 1:

E|--------|-----------------------------|--0--0--0--3--3--3--3--7--7--3--3--3--|--
B|--------|-----------------0-----------|--0--------5--------5--------5--------|--
G|--------|--0--2--2--0--0-----2--2--0--|--0--------4-----------------4--------|--
D|--2--2--|--0--2--2--0-----------------|--------------------------------------|--
A|--2-----|-----------------2--0--0-----|--------------------------------------|--
E|--------|--------------------------3--|--------------------------------------|--

Stave 2:

E|-----------------------------2--2--2--|--------------------2--2--2-----------|--
B|-----------0--0--0--0--3--3--3--------|--0--0--0--3--3--3--3-----------------|--
G|-----------------------------4--------|-----------4--------0-----------------|--
D|--0--4--4--4--------4-----------------|--4--------4-----------------0--4--4--|--
A|--2--------5--------------------------|--5--------------------------2--------|--
E|--------------------------------------|--------------------------------------|--

Stave 3:

E|--------------------0--0--0--5--5--5--|--0--0--0--3--3--3--7--7--7--3--3--3--|--
B|-----------1--1--1--1--------5--------|--0--------5--------8--------5--------|--
G|--2--2--2--2--------2--------5--------|--0--------4--------9--------4--------|--
D|--2--------2--------------------------|--------------------------------------|--
A|--3-----------------------------------|--------------------------------------|--
E|--------------------------------------|--------------------------------------|--

Stave 4:

E|-----------------------------2--2--2--|--------------------2--2--2-----------|--
B|-----------0--0--0--0--3--3--3--------|--0--0--0--3--3--3--3-----------------|--
G|-----------------------------4--------|-----------4--------0-----------------|--
D|--0--4--4-----------4-----------------|--4--------4-----------------0--4--4--|--
A|--2--------4--------------------------|--5--------------------------2--------|--
E|-----------5--------------------------|--------------------------------------|--

Stave 5:

E|---------------------|--------------|-----------------------|--------------------|--
B|---------------------|--0-----------|-----------0-----------|--------------------|--
G|---------------------|--0-----------|-----------------------|--2--0--2--0-----0--|--
D|------5-----5--5-----|--2--2--2--0--|--4--5--7--4--7--5-----|--4-----------2-----|--
A|---------7--------7--|-----2-----2--|--5--------5--------7--|--5-----------------|--
E|---------------------|-----3-----3--|-----------------------|--------------------|--

Stave 6:

E|-----------------------------------|-----------|-----------------------|--
B|-----------------------------------|--0--------|-----------0-----------|--
G|-----------------0-----0-----0--2--|-----------|-----------------------|--
D|--2-----------------2-----2--------|--2--2--2--|--4--5--7--4--7--5-----|--
A|-----------------------------------|--2--------|--5--------5--------7--|--
E|-----------------------------------|-----------|-----------------------|--

Stave 7:

E|--------------------|-----------------------------|-----------------|--
B|--------------------|-----------------------------|--0--------------|--
G|--2--0--2--0-----0--|--------------0--0-----0--2--|-----------------|--
D|--4-----------2-----|--2--------2--2-----2--------|--2--2--2--0--0--|--
A|--5-----------------|--------------3--------------|--2-----------2--|--
E|--------------------|-----------------------------|--------------3--|--

Stave 8:

E|-----------------------|-----------------|--------------------|--
B|-----------0-----------|-----------------|--------------------|--
G|-----------------------|--2--0--2-----0--|--------0-----0--2--|--
D|--4--5--7--4--7--5-----|--4--------4-----|--2--2-----2--------|--
A|--5--------5--------7--|--5--------5-----|--3-----3-----------|--
E|-----------------------|-----------------|--5-----5-----------|--

Stave 9:

E|--------------|-----------------------|--------------------|-----|--
B|--0-----------|-----------------------|--------------------|-----|--
G|--0-----------|--------3--5--3--------|--2--0--2--0-----0--|-----|--
D|--2--2--2--0--|--4--5-----------5--2--|--4--------0--2-----|--2--|--
A|-----2-----2--|--5--------------------|--5--------2--------|--3--|--
E|-----3-----3--|-----------------------|--------------------|--5--|--

Stave 10:

E|--------------------------|---------------------------------|--
B|-----0--0--0--0--0--------|---------------------------------|--
G|--0--------------0--0--0--|--2--2--2------2--2--2-----------|--
D|--2--------------2--------|--4------------------4--4--4--4--|--
A|--------------------------|--5------------------5-----------|--
E|--------------------------|---------------------------------|--

Stave 11:

E|----------------------------------|----------------------------------------|--
B|----------------------------------|----------------------------------------|--
G|-----2--2--2------2------2--------|--0----------0--0----0----0----2--------|--
D|--4----------------------4--4--4--|--2----------------------------2--2--2--|--
A|--5----------------------5--------|--3----------------------------3--------|--
E|----------------------------------|----------------------------------------|--

Stave 12:

E|---------------------------------------------|-----------------------------------|--
B|-----0--0------0--0------0-------------------|-----------------------------------|--
G|--0----------------------0------0------0--0--|--2----2--2-----2------2--2--2-----|--
D|--2----------------------2-------------------|--4----------4--4---------------4--|--
A|---------------------------------------------|--5-------------5------------------|--
E|---------------------------------------------|-----------------------------------|--

Stave 13:

E|-------------------------------------|-------------------------------|--
B|-------------------------------------|----------------------------0--|--
G|-------2--2----2----2--2--2----------|--2----------------------------|--
D|--4-----------------------4--4----5--|--4----------------------------|--
A|--5-----------------------5----------|--5----0----0------0--0--0-----|--
E|-------------------------------------|-------------------------------|--

Stave 14:

E|--------------------------------|-----0----0--0--------------------|--
B|--------------------------0--0--|--0-------------3--3--0-----------|--
G|--2-----------------------------|--2----------------------2--2--0--|--
D|--4-----------------------------|--2-------------------2-----------|--
A|--5--0----0----0--0----0--------|----------------------3-----------|--
E|--------------------------------|----------------------------------|--

Stave 15:

E|---------------------------------|---------------------------------|--
B|------------------------------0--|------------------------------0--|--
G|---------------------------------|--2------------------------------|--
D|--2------------------------------|--4------------------------------|--
A|--2----0----0----0--0----0-------|--5----0----0----0--0----0-------|--
E|--3------------------------------|---------------------------------|--

Stave 16:

E|------------------------------------|-----0----0--0--------------------|--
B|------------------------------0--0--|--0-------------3--3--0-----------|--
G|--2---------------------------------|--2----------------------2--2--0--|--
D|--4---------------------------------|--2-------------------2-----------|--
A|--5----0----0----0--0----0----------|----------------------3-----------|--
E|------------------------------------|----------------------------------|--

Stave 17:

E|--------------------|-------------------------2--2--2--|--
B|--------0-----------|-----0--0----0--3--3--3--3--------|--
G|--0--2-----2--0-----|----------------4--------4--------|--
D|--2-----2--------4--|--4--4----------4-----------------|--
A|--2-----2-----------|--5--5----------------------------|--
E|--------------------|----------------------------------|--

Stave 18:

E|-----------------------|-----0----0--0----------------------|--
B|-----------------0--0--|--3-------------3--0--2----2--2-----|--
G|--2--0-----------------|--2------------------------------2--|--
D|--4-----4--2--0--------|--2----------------2----------------|--
A|--5-----5--------------|-------------------3----------------|--
E|--------7--------------|------------------------------------|--

Stave 19:

E|----------------------|---------------------------2--2-----|--
B|----------0--3--0-----|-----0--0--0--3----3--3----3--------|--
G|--0----2--0--------2--|--2-----------4------------4-----0--|--
D|--2-------2-----------|--4--4--------4---------------------|--
A|--2-------------------|--5--5------------------------------|--
E|----------------------|------------------------------------|--

Stave 20:

E|--------------------|-----------------------|----------------|--
B|--------------------|-----------------------|--0-------------|--
G|--2--0-----2--0--2--|--------0-----0--0--2--|--0-------------|--
D|--------4-----------|--2--2-----2-----------|--2--2--0----0--|--
A|--------------------|-----------------------|-----2-------2--|--
E|--------------------|-----------------------|-----3-------3--|--

Stave 21:

E|--------------------------|--------------------|--------------------|--
B|--------------0-----------|--------------------|-----0--------------|--
G|--------0--2-----2--0-----|--2--0--2--0-----0--|--2-----2--0-----0--|--
D|--0--2--------0--------2--|--4--------0--2-----|--4--------0--2-----|--
A|--2-----------2-----------|--5--------2--------|--5--------2--------|--
E|--------------------------|--------------------|--------------------|--

Stave 22:

E|--------------------------|--------------|--------------------------|--
B|--------------------------|--0-----------|--------------0-----------|--
G|--------0-----0-----0--2--|--0-----------|--------0--2-----2--0-----|--
D|--2--2-----2--2--2--------|--2--2--2--0--|--0--2--------0--------2--|--
A|--3-----------3-----------|-----2-----2--|--2-----------2-----------|--
E|--5-----------------------|-----3-----3--|--------------------------|--

Stave 23:

E|----------------------|----------------------|--------------|--
B|----------------------|----------------------|--0-----------|--
G|--2--2-------0-----0--|----------0-----0--2--|--0-----------|--
D|--0-----2----0--2-----|--2----2--2--2--------|--2--2--2--0--|--
A|--2----------2--------|--3-------3-----------|-----2-----2--|--
E|----------------------|--0-------------------|-----3-----3--|--

Stave 24:

E|--------------------------|-----|-------------------------|--
B|--------3--0--------------|-----|-------------------0--0--|--
G|-----0--------2--0--2--0--|-----|--2--0-------------------|--
D|--4-----------4-----------|--2--|--0-----4--2--0----------|--
A|--5-----------5-----------|--3--|--2-----5----------------|--
E|--------------------------|--5--|--------7----------------|--

Stave 25:

E|-----0----0--0------------------------|---------------|--
B|--3-------------3----0----------------|---------------|--
G|--2------------------2--2----2--2--0--|---------------|--
D|--2------------------3----------------|--2------------|--
A|--------------------------------------|---------------|--
E|--------------------------------------|--0------------|--

Stave 26:

E|-------------|-------------|----------|-------------|----------|--------|--
B|--0----------|--0----------|-------1--|-------------|----------|--------|--
G|-------------|-------------|--2-------|-------------|----------|--------|--
D|-------------|-------------|----------|--2----------|----------|--------|--
A|--2----------|--2----------|--0----3--|-------------|----------|--------|--
E|-------------|-------------|----------|--0----------|----------|--------|--

http://www.guitartabcreator.com
Guitar Tab Creator is intended to store guitar tab created through the tool. It currently does not support in-line text editing. Any text you place in here will be lost. If you need to comment on your tab, please use the "Tab Notes" section located below.