Radioactive by Imagine Dragons

Chords

01234567891011121314151617181920212223
E
B
G
D
A
E
B
0 1 2 3 4 5 6 7 8 9 10 11 12 13 14 15 16 17 18 19 20 21 22 23
 INTRO


http://www.youtube.com/watch?v=oQObQUZPIv8 LIVE

http://www.youtube.com/watch?v=eu-xFvLaE68 Original



   Lead Guitar
E|-------------------------------------------------|
B|--------15----17----19--17------15-----17b15-----|
G|--161416--1416--1416--14--161416---1416-----1416-|  X3
D|-------------------------------------------------|
A|-------------------------------------------------|
D|-------------------------------------------------|

  
     Acoustic
     (Capo 2)
   Am  C   G   D
E|---------3---2-|
B|-1---1-------3-|
G|-2-----------2-|  X3 
D|-2---2---------|
A|-----3---2-----|
E|---------3-----|

   VERSE 

   Backing Guitar (optional)
   (to the beat of the bass)

E|--------------------------------------|
B|--------------------------------------|
G|--------------------------------------|
D|--------------------------------------|
A|--------------------------------------|
D|-//9999-//1212121212-//77-7-//2222222-|


  Lead Guitar
                              
E|-------------------------|--------------------|
B|-1111911-----------------|-1111911------------|
G|--------1010810888108866-|--------10108108-6--|  
D|-------------------------|--------------------|
A|-------------------------|--------------------|
D|-------------------------|--------------------|


Lead Guitar LIVE
  
E|--------------------------|---------------------|
B|-12121012-----------------|-12121012------------|
G|---------1111911999119977-|---------11119119-7--|  
D|--------------------------|---------------------|
A|--------------------------|---------------------|
D|--------------------------|---------------------|



       CHORUS
   Backing Guitar (optional)
   
E|-------------------------|
B|-------------------------|
G|-------------------------|  X4
D|-9999-12121212-7777-2222-|
A|-9999-12121212-7777-2222-|
D|-9999-12121212-7777-2222-|

   Lead Guitar
   
E|-
B|-
G|-
D|-
A|-
D|-

       VERSE

  Backing Guitar (optional)
   (to the beat of the bass)

E|--------------------------------------|
B|--------------------------------------|
G|--------------------------------------|
D|--------------------------------------|
A|--------------------------------------|
D|-//9999-//1212121212-//77-7-//2222222-|


  Lead Guitar
                              
E|-------------------------|--------------------|
B|-1111911-----------------|-1111911------------|
G|--------1010810888108866-|--------10108108-6--|  
D|-------------------------|--------------------|
A|-------------------------|--------------------|
D|-------------------------|--------------------|


       CHORUS
   Backing Guitar (optional)
   
E|-------------------------|
B|-------------------------|
G|-------------------------|  X4
D|-9999-12121212-7777-2222-|
A|-9999-12121212-7777-2222-|
D|-9999-12121212-7777-2222-|

   Lead Guitar
   
E|-
B|-
G|-
D|-
A|-
D|-


   BRIDGE

   Acoustic (optional)
   (Capo 2)


   Am  C   G   D
E|---------3---2-|           ~Can be each strummed just once our each note picked individually for  
B|-1---1-------3-|           all 4 chords~
G|-2-----------2-|  X2           
D|-2---2---------|
A|-----3---2-----|
E|---------3-----|

   Lead Guitar
   (Flute Sound)

E|----------------------------------------|
B|----------------------------------------|
G|-19191919-2121-1818181818-18-1616161616-|  X2
D|----------------------------------------|
A|----------------------------------------|
E|----------------------------------------|
   

  Lead Guitar LIVE
   (Flute Sound)

E|----------------------------------------|
B|----------------------------------------|
G|--18181818-2020-17171717-15151515-------|  X2
D|----------------------------------------|
A|----------------------------------------|
E|----------------------------------------|





   CHORUS
   Backing Guitar (optional)
   
E|-------------------------|
B|-------------------------|
G|-------------------------|  X4
D|-9999-12121212-7777-2222-|
A|-9999-12121212-7777-2222-|
D|-9999-12121212-7777-2222-|

   Lead Guitar
   
E|-
B|-
G|-
D|-
A|-
[[],[],[],[],[],[]]

Member for

7 years 9 months
Submitted by BLUE3UN on Sat, 2012-10-27 13:47