Sound will begin in 5 seconds

Down with the Crown

01234567891011121314151617181920212223
E
B
G
D
A
E
B
0 1 2 3 4 5 6 7 8 9 10 11 12 13 14 15 16 17 18 19 20 21 22 23
Song Science #1: How Pros Use 6 Chords to Write Hit Songs
(/) Slide Up  (\) Slide Down  (h) Hammer On  (p) Pull Off  (b) Bend (r) Release (v) Vibrato

Stave 1:

E|------------------------|----------------------------|--
B|------------------------|----------------------------|--
G|-----4h6--6--4--4h6--4--|--6--9--9--11--9--11--9--8--|--
D|------------------------|----------------------------|--
A|--4---------------------|----------------------------|--
E|------------------------|----------------------------|--

Stave 2:

E|---------------------------------|----------------------|-------------------------------|--
B|---------------------------------|----------------------|-------------------------------|--
G|---------------------------------|----------------------|-------------------------------|--
D|-----6--4h6-----6--6-------------|----------------------|-------------------------------|--
A|----------------------4h6--4--4--|--4--6--6h7--6--4-----|--4--6--6h7--6--4--2--4--2--1--|--
E|--4----------4-------------------|-------------------2--|-------------------------------|--

Stave 3:

E|---------------------------------|--------------------------------|-----
B|---------------------------------|--------------------------------|-----
G|---------------------------------|--------------------------------|-----
D|-----6--4h6-----6--6-------------|--------------------------------|-----
A|----------------------4h6--4--4--|--4h6h4--2--2h4h2--1--1h2h1-----|-----
E|--4----------4-------------------|-----------------------------2--|-----

Stave 4:

E|---------------------------------------------
B|---------------------------------------------
G|---------------------------9-----------------
D|--------6--6h7h6--4-----9-----9--------4-----
A|--4--7---------------7--------------4-----4--
E|---------------------------------2-----------

Stave 5:

E|-------------------------------|-------------------------------|---------------------------------------------------------------
B|-------------------------------|-------------------------------|---------------------------------------------------------------
G|-------------------4-----3-----|-------------------4--3--4--6--|-------------------4--3-----4--6--6h8--8--8--8--9--8--6--4--3--
D|--4h6--6--6--6--6-----6-----4--|--0h2--2--2--2--2--------------|--3h4--4--4--4--4----------------------------------------------
A|-------------------------------|-------------------------------|---------------------------------------------------------------
E|-------------------------------|-------------------------------|---------------------------------------------------------------

http://www.guitartabcreator.com
Guitar Tab Creator is intended to store guitar tab created through the tool. It currently does not support in-line text editing. Any text you place in here will be lost. If you need to comment on your tab, please use the "Tab Notes" section located below.