Dire

Chords

01234567891011121314151617181920212223
E
B
G
D
A
E
B
0 1 2 3 4 5 6 7 8 9 10 11 12 13 14 15 16 17 18 19 20 21 22 23
(/) Slide Up  (\) Slide Down  (h) Hammer On  (p) Pull Off  (b) Bend (r) Release (v) Vibrato

E|-------------------------------------5--8--5---------------
B|----------------------------------6-----------6--5h6p5-----
G|--5--5--5h7-------7-----10--7--7------------------------7--
D|-------------5/7-----7-------------------------------------
A|-----------------------------------------------------------
E|-----------------------------------------------------------



E|-----------------------------5--------------------
B|-----------------10------10--6--5--5--6--6--5--3--
G|--4b6b4b6--------------------5--5--5--5--5--5--3--
D|-----------7/11------11------7--5--5--7--7--5--3--
A|-----------------------------8--------------------
E|-----------------------------0--------------------



E|--------------------------------------------------
B|---------------------3--6-----3--5----------------
G|-------7-----10--7v--3--3-----3--5-------------5--
D|--5/7-----7----------3-----3-------------5--7-----
A|------------------------------------5/7-----------
E|--------------------------------------------------



E|------------------------------------
B|------10------10--11------10--8--6--
G|------------------------------------
D|--11------11----------11------8--7--
A|------------------------------------
E|------------------------------------



E|--10--9-----------------------5--
B|---------10-------------------6--
G|-------------9\7--6-----------5--
D|---------------------7--------7--
A|------------------------5--7--8--
E|---------------------------------



E|--------------------10--8------
B|--5--5--6--6--5--3---------10--
G|--5--5--5--5--5--3--10--9--10--
D|--5--5--7--7--5--3-------------
A|-------------------------------
E|-------------------------------



E|--------------------------------
B|--3--6-----3--5--3--6-----3--5--
G|--3--3-----3--5--3--3-----3--5--
D|--3-----3--------3-----3--------
A|--------------------------------
E|--------------------------------



E|-------------------------------------
B|--6--5--3--6--6--5--5--------10--8---
G|--7--5--3--5--5--5--5--------10--9---
D|--7--5--3--7--7--5--5--5/10--10--10--
A|-------------------------------------
E|-------------------------------------


						http://www.guitartabcreator.com
[[],[],[],[],[],[]]

Member for

8 years 7 months
Submitted by blackmano on Wed, 2011-10-12 01:12