Sound will begin in 5 seconds

A Small riot

01234567891011121314151617181920212223
E
B
G
D
A
E
B
0 1 2 3 4 5 6 7 8 9 10 11 12 13 14 15 16 17 18 19 20 21 22 23
Song Science #1: How Pros Use 6 Chords to Write Hit Songs
(/) Slide Up  (\) Slide Down  (h) Hammer On  (p) Pull Off  (b) Bend (r) Release (v) Vibrato

Stave 1:

E|-------------------------
B|-------------------------
G|----------------5r3---3v-
D|---------3v-v-v-----5----
A|-----3-5-----------------
E|-3/5---------------------

Stave 2:

E|---------------------------------------------------------
B|---------------------------------------------------------
G|------9r7---9r7---9r7---9r7-------5v-7r5---5v-7r5-7b9-12/
D|-12-5-----9-----9-----9-----9-5-7--------7---------------
A|-12-5----------------------------------------------------
E|-10-3----------------------------------------------------

Stave 3:

E|-
B|-
G|-
D|-
A|-
E|-

Stave 4:

E|-3-3-5-3-3-3-3-3-3-
B|-3-3-5-3-3-3-3-3-3-
G|-4-4-6-4-4-4-4-4-4-
D|-5-5-7-5-5-5-5-5-5-
A|-5-5/7-5-5-5-5-5-5-
E|-3-3-5-3-3-3-3-3-3-

Stave 5:

E|-----------------------------------------------------------------------------
B|-18-15-18-18b20-18-17-15v----------------------------------------------------
G|--------------------------15-17b18-17r15-------------------------------------
D|-----------------------------------------17v-15-17-17v-v-17-15---------------
A|---------------------------------------------------------------17-15---------
E|---------------------------------------------------------------------17-15\--

Stave 6:

E|-----------------------------12b14-------17b19-21b
B|-----------------12b14-12r10----------------------
G|-----7-9/12v-v-v----------------------------------
D|-7/9----------------------------------------------
A|--------------------------------------------------
E|--------------------------------------------------

Stave 7:

E|-21-19----19v-v-v-v-v-v-v---------------------------------------------
B|-------21-----------------9r7---7-------------------------------------
G|------------------------------9---9-7---------------------------------
D|--------------------------------------9-7-5---------------------------
A|--------------------------------------------7-9-----------------------
E|------------------------------------------------8-7-9/12v-v-v-v-v-v-v-

Stave 8:

E|-------------------------------------------------------------------
B|-------------------------------------------------------------------
G|-7v-v-7v-v-7v-v-7-7v-v-v-v-v-v-v-7-7v-v-v-v-v-9r7---7r5--------3\0-
D|--------------------------------------------------9-----7v-v-v-----
A|-------------------------------------------------------------------
E|-------------------------------------------------------------------

Stave 9:

E|---------
B|---------
G|---------
D|-----5-5-
A|---5---5-
E|-3-----3-

http://www.guitartabcreator.com
Guitar Tab Creator is intended to store guitar tab created through the tool. It currently does not support in-line text editing. Any text you place in here will be lost. If you need to comment on your tab, please use the "Tab Notes" section located below.