Sound will begin in 5 seconds

No More By: blackcoats

01234567891011121314151617181920212223
E
B
G
D
A
E
B
0 1 2 3 4 5 6 7 8 9 10 11 12 13 14 15 16 17 18 19 20 21 22 23
Song Science #1: How Pros Use 6 Chords to Write Hit Songs
(/) Slide Up  (\) Slide Down  (h) Hammer On  (p) Pull Off  (b) Bend (r) Release (v) Vibrato

Stave 1:

E|------12------12------12------12------15------15------15------15------12------12------12--
B|--12------12------12------12------12------12------12------12------14------14------14------
G|------------------------------------------------------------------------------------------
D|------------------------------------------------------------------------------------------
A|------------------------------------------------------------------------------------------
E|------------------------------------------------------------------------------------------

Stave 2:

E|------12------12------12------12------12--15--13--12--12--12--12--15--13--12--12--12--
B|--14------13------13------13------13------12--12--14--13--12--12--12--12--14--13--12--
G|--------------------------------------------------------------12--12--12--12--12--12--
D|--------------------------------------------------------------------------------------
A|--------------------------------------------------------------------------------------
E|--------------------------------------------------------------------------------------

Stave 3:

E|--12--12--12--
B|--12--12--12--
G|--14--13--12--
D|--------------
A|--------------
E|--------------

Stave 4:

E|-----------------
B|-----------------
G|-----------------
D|-----0--------x--
A|-----0--------x--
E|-----0--------x--

Stave 5:

E|------------------------------------------------------------------------------------
B|------------------------------------------------------------------------------------
G|------------------------------------------------------------------------------------
D|--7--x--x--x--x--9--x--x--x--14--x--x--17--x--x--x--19--x--x--x--21--x--x--x--------
A|--7--x--x--x--x--9--x--x--x--14--x--x--17--x--x--x--19--x--x--x--21--x--x--x--------
E|--5--x--x--x--x--7--x--x--x--12--x--x--15--x--x--x--17--x--x--x--19--x--x--x--17\3--

Stave 6:

E|--------------------------------------------------------------------------
B|--------------------------------------------------------------------------
G|--------------------------------------------------------------------------
D|--------------------------------------------------------------------------
A|--------------------------------------------------------------------------
E|--3--5--5--5--5--3--5--5--5--3--5--5--5--5--3--5--5--5--3--5--3--3--3--3--

Stave 7:

E|------------------------
B|------------------------
G|------------------------
D|--7--9------------------
A|--7--9------------------
E|--5--7------------------

Stave 8:

E|--15p12--15p12--15p12--15p12--15p12--15p12--12p9--12p9--12p9--9p7--9p7--9p7--12p9--12p9--12p------
B|--------------------------------------------------------------------------------------------------
G|--------------------------------------------------------------------------------------------------
D|--------------------------------------------------------------------------------------------------
A|--------------------------------------------------------------------------------------------------
E|-----------------------------------------------------------------------------------------------3--

Stave 9:

E|---------------------------------------------------------------------
B|---------------------------------------------------------------------
G|---------------------------------------------------------------------
D|--5--5--5--5--5--5-----5--5--5--5--5--5--5--5--5--5--5--5------5--7--
A|--5--5--5--5--5--5--5--5--5--5--5--5--5--5--5--5--5--5--5------5--7--
E|--3--3--3--3--3--3--3--3--3--3--3--3--3--3--3--3--3--3--3------3--5--

Stave 10:

E|--21--15b17--------15p12-----------------------------------------------------------------
B|--------------------------15--12v--v--v--v--15p12----------15p12----------15p12----------
G|---------------------------------------------------14--12---------14--12---------14--12--
D|-----------------------------------------------------------------------------------------
A|-----------------------------------------------------------------------------------------
E|-----------------------------------------------------------------------------------------

Stave 11:

E|----------------------------12-------------12-------------12-------------12-------------12--
B|--15p12-----------------12-------------12-------------12-------------12-------------12------
G|---------14--12--14b16----------14b16----------14b16----------14b16----------14p16----------
D|--------------------------------------------------------------------------------------------
A|--------------------------------------------------------------------------------------------
E|--------------------------------------------------------------------------------------------

Stave 12:

E|-------------12-------------12-------------12--12--13--
B|---------12-------------12-------------12------12--13--
G|--14b16----------14b16----------14b16------------------
D|-------------------------------------------------------
A|-------------------------------------------------------
E|-------------------------------------------------------

Stave 13:

E|-----------3--------------0-----------2--3-----2--
B|--------3--------------1-----------3-----3--1--3--
G|--------------------2-----------2--------0--2--2--
D|-----------------2-----------0-----------0--2--0--
A|-----2--------0--------------------------2--0-----
E|--3--------------------------------------3--------

Stave 14:

E|--------------------------7--9--9--9b11--11--10--9-----------------------------------------------
B|--------------------9--7--7--9--9-------------------11--9----------------------------------------
G|--9b10--9--7-----------------------------------------------10v--v--v--10b11b11--12b14/10v--v--v--
D|--------------9--7-------------------------------------------------------------------------------
A|-------------------------------------------------------------------------------------------------
E|-------------------------------------------------------------------------------------------------

Stave 15:

E|---------14---------14---------14---------------------------------------------------------------
B|--17b19------17b19------17b19------17b19--14--17b19--14--17b19--14--17b19--14--17b19--14--------
G|------------------------------------------------------------------------------------------------
D|------------------------------------------------------------------------------------------------
A|------------------------------------------------------------------------------------------------
E|------------------------------------------------------------------------------------------------

Stave 16:

E|------------------------20b21--20--18h20p18/0--
B|--17b19--14--17b19--14-------------------------
G|-----------------------------------------------
D|-----------------------------------------------
A|-----------------------------------------------
E|-----------------------------------------------

Stave 17:

E|-----------------------------------------------
B|-----------------------------------------------
G|-----------------------------------------------
D|-----------------------------------------------
A|-----------------------------------------------
E|--3h5/7--5--3h5/7--3h5/7--3h5/7--3h5/7--3h5/7--

Stave 18:

E|-------3----------------------------------------
B|----------6--3----------5--3--------------------
G|--5b6-----------5v--3v--5--3--5--3--------5--3--
D|------------------------------5--3--5--3--5--3--
A|------------------------------------5--3--------
E|------------------------------------------------

Stave 19:

E|-----------------------
B|--5p3------------------
G|-------5v--v--v--v--v--
D|-----------------------
A|-----------------------
E|-----------------------

Stave 20:

E|--9b11--11--9--9b11--9v--v--v--v--
B|----------------------------------
G|----------------------------------
D|----------------------------------
A|----------------------------------
E|----------------------------------

Stave 21:

E|--9/7v--------------------------------------------------
B|--------7/9v--v--v--9/7v--v--v--7/5v--v--v--------------
G|--------------------------------------------5/7v--v--v--
D|--------------------------------------------------------
A|--------------------------------------------------------
E|--------------------------------------------------------

http://www.guitartabcreator.com
Guitar Tab Creator is intended to store guitar tab created through the tool. It currently does not support in-line text editing. Any text you place in here will be lost. If you need to comment on your tab, please use the "Tab Notes" section located below.