Sound will begin in 5 seconds

Take Control

01234567891011121314151617181920212223
E
B
G
D
A
E
B
0 1 2 3 4 5 6 7 8 9 10 11 12 13 14 15 16 17 18 19 20 21 22 23
Song Science #1: How Pros Use 6 Chords to Write Hit Songs
(/) Slide Up  (\) Slide Down  (h) Hammer On  (p) Pull Off  (b) Bend (r) Release (v) Vibrato

Stave 1:

E|--------------------------|---------------------------|--------------------------|----------------------------
B|--------------------------|---------------------------|--------------------------|----------------------------
G|--------------------------|---------------------------|--------------------------|----------------------------
D|-----2--3--0--2-----0-----|-----2--3--0--2h3p2--------|-----2--3--0--2-----0-----|-----2--3--0--2h3p2--0------
A|--0--------------3-----2--|--0------------------3--2--|--0--------------3-----2--|--0---------------------3v--
E|--------------------------|---------------------------|--------------------------|----------------------------

Stave 2:

E|--------------------------------------------------|-------------------------------------------------
B|--------------------------------------------------|-------------------------------------------------
G|--------------------------------------------------|-------------------------------------------------
D|--------------------------------------------------|-------------------------------------------------
A|--------------------------------------------------|-------------------------------------------------
E|--0--8--7--0--10--8--0--8--7--0--5--7--8--7--5h7--|--0--6--5--0--8--6--0--6--5--0--3--5--6--5--3h5--

Stave 3:

E|-------------------------------------------------|------------------------------------------------
B|-------------------------------------------------|------------------------------------------------
G|--7--------8-----10--8---------------------------|--5--------7-----8--7---------------------------
D|--7--------8-----10--8---------------------------|--5--------7-----8--7---------------------------
A|--5--------6-----8---6---------------------------|--3--------5-----6--5---------------------------
E|-----0--0-----0---------0----0--0--0----0--0--0--|-----0--0-----0--------0----0--0--0----0--0--0--

Stave 4:

E|---------------------
B|---------------------
G|---------------------
D|--0--0---------------
A|--0--0---------------
E|--0--0--0--10--8--7--

Stave 5:

E|-----------|--0--|------
B|-----------|--6--|--15--
G|-----------|-----|--17--
D|--0--0--0--|-----|------
A|--0--0--0--|-----|------
E|--0--0--0--|-----|------

http://www.guitartabcreator.com
Guitar Tab Creator is intended to store guitar tab created through the tool. It currently does not support in-line text editing. Any text you place in here will be lost. If you need to comment on your tab, please use the "Tab Notes" section located below.