Sound will begin in 5 seconds

Just A Lie

01234567891011121314151617181920212223
E
B
G
D
A
E
B
0 1 2 3 4 5 6 7 8 9 10 11 12 13 14 15 16 17 18 19 20 21 22 23
Song Science #1: How Pros Use 6 Chords to Write Hit Songs
(/) Slide Up  (\) Slide Down  (h) Hammer On  (p) Pull Off  (b) Bend (r) Release (v) Vibrato

Stave 1:

E|----------------------------------------------------------------------------------
B|---------------------------------0---------------------------------------0--------
G|-----------0------------------7-----7--------------0------------------5-----5-----
D|--------5-----5h7p5--5-----7-----------7--------5-----5h7p5--5-----5-----------5--
A|-----7------------------5--------------------7------------------3-----------------
E|--0---------------------------------------0---------------------------------------

Stave 2:

E|---------------------------------------------------
B|---------------------------------------------------
G|-----------------------7------------------------5--
D|-----7-----5-----------7-----7-----5-----5h7p5--5--
A|--0-----0-----0--7--0--5--0-----0-----0---------3--
E|---------------------------------------------------

Stave 3:

E|--------------------------------
B|--------------------------------
G|--9--9--5--5--------------------
D|--7--7--5--5--3--3--------------
A|--7--7--3--3--3--3--------------
E|--7--7--------3--3--3h5p3p0--2--

Stave 4:

E|--------------------------------------------------------
B|--------------------------------------------------------
G|--------------------------------------------------------
D|-----------------------------------------------------5--
A|-----------------------------------------------------5--
E|--0--0--1h3p1p0--0--0--1h3p1p0--0--0--1h3p1p0--0--0--5--

Stave 5:

E|-------------------------------
B|-------------------------------
G|-------------------------------
D|--0-----1-----3-----1--1/3--3--
A|--0-----1-----3-----1--1-3--3--
E|--0--0--1--0--3--0--1--1-3--3--

Stave 6:

E|----------------------------------------------------------
B|----------------------------------------------------------
G|----------------------------------------------------------
D|--0--0--0--0--0--1--0--0--0--0--3--0--0--0--0--1--1/3--3--
A|-----0--0--0--0-----0--0--0--0-----0--0--0--0--1--1-3--3--
E|-----0--0--0--0-----0--0--0--0-----0--0--0--0--1--1-3--3--

http://www.guitartabcreator.com
Guitar Tab Creator is intended to store guitar tab created through the tool. It currently does not support in-line text editing. Any text you place in here will be lost. If you need to comment on your tab, please use the "Tab Notes" section located below.