Sound will begin in 5 seconds

5th

01234567891011121314151617181920212223
E
B
G
D
A
E
B
0 1 2 3 4 5 6 7 8 9 10 11 12 13 14 15 16 17 18 19 20 21 22 23
Song Science #1: How Pros Use 6 Chords to Write Hit Songs
(/) Slide Up  (\) Slide Down  (h) Hammer On  (p) Pull Off  (b) Bend (r) Release (v) Vibrato

Stave 1:

E|--------------------------------------------------------------------------------------
B|---------------------------------17-19-17-19-17-19-17-19-9----------------------------
G|-16-13-13-14-13---------------------------------------------13-15-13-15-13-15-13-15-8-
D|----------------12--14-16-17-16-------------------------------------------------------
A|--------------------------------------------------------------------------------------
E|--------------------------------------------------------------------------------------

Stave 2:

E|---------------------------------------------------------------------------------------
B|-17-19-17-19-17-19-17-19-9-12----------------------------12-12-14-14-17-19-17-19-19-21-
G|------------------------------8-10-12-13-5-7-8v-10-12-13-------------------------------
D|---------------------------------------------------------------------------------------
A|---------------------------------------------------------------------------------------
E|---------------------------------------------------------------------------------------

Stave 3:

E|-16-17b-16-17-16-9-10------9-9-10----10----10---10---5-9-14-13----------------------
B|----------------------9-10--------12----10----9----7-----------14-12-14-------------
G|------------------------------------------------------------------------10-12-13-12-
D|------------------------------------------------------------------------------------
A|------------------------------------------------------------------------------------
E|------------------------------------------------------------------------------------

Stave 4:

E|-------------
B|-------------
G|-------------
D|-10-12-14-13-
A|-------------
E|-------------

http://www.guitartabcreator.com
Guitar Tab Creator is intended to store guitar tab created through the tool. It currently does not support in-line text editing. Any text you place in here will be lost. If you need to comment on your tab, please use the "Tab Notes" section located below.