Sound will begin in 5 seconds

Glory By Phil Wickham

01234567891011121314151617181920212223
E
B
G
D
A
E
B
0 1 2 3 4 5 6 7 8 9 10 11 12 13 14 15 16 17 18 19 20 21 22 23
Song Science #1: How Pros Use 6 Chords to Write Hit Songs
(/) Slide Up  (\) Slide Down  (h) Hammer On  (p) Pull Off  (b) Bend (r) Release (v) Vibrato

Stave 1:

E|------------------14--13------13----------------------14--13--
B|--------------------------16------16--14----------------------
G|--15--18--15--13--------------------------15--18--13----------
D|--------------------------------------------------------------
A|--------------------------------------------------------------
E|--------------------------------------------------------------

Stave 2:

E|--------------------------------------
B|--------------------------------------
G|-----11--10--6--5--------11--10--6/8--
D|--8----------------6--8---------------
A|--------------------------------------
E|--------------------------------------

Stave 3:

E|----------------------------------------------------------------------
B|--14--13--11--6--6--4--4--2--------14--13--11--9--11--11--13--13--14--
G|----------------------------------------------------------------------
D|----------------------------------------------------------------------
A|----------------------------------------------------------------------
E|----------------------------------------------------------------------

Stave 4:

E|--------------------------------
B|--14--14--13--13--11--11--9--9--
G|--------------------------------
D|--------------------------------
A|--------------------------------
E|--------------------------------

Stave 5:

E|------------------------------------------------------------------------------------16--16--16--
B|--18--18--16--16--14--14--16--16--19--19--18--18--16--16--14--14--------18--18--18--------------
G|------------------------------------------------------------------------------------------------
D|------------------------------------------------------------------------------------------------
A|------------------------------------------------------------------------------------------------
E|------------------------------------------------------------------------------------------------

http://www.guitartabcreator.com
Guitar Tab Creator is intended to store guitar tab created through the tool. It currently does not support in-line text editing. Any text you place in here will be lost. If you need to comment on your tab, please use the "Tab Notes" section located below.