Sound will begin in 5 seconds

Wonderful Tonight - Singing Solo Part 2

01234567891011121314151617181920212223
E
B
G
D
A
E
B
0 1 2 3 4 5 6 7 8 9 10 11 12 13 14 15 16 17 18 19 20 21 22 23
Song Science #1: How Pros Use 6 Chords to Write Hit Songs
(/) Slide Up  (\) Slide Down  (h) Hammer On  (p) Pull Off  (b) Bend (r) Release (v) Vibrato

Stave 1:

E|------15--17--18b19v--21b21--
B|--17-------------------------
G|-----------------------------
D|-----------------------------
A|-----------------------------
E|-----------------------------

Stave 2:

E|--------------------------------------------------------------15--18b19--15--
B|----------------12h13--15v----15/17--17--17--15--17----15h17-----------------
G|---------12h14---------------------------------------------------------------
D|--12h14----------------------------------------------------------------------
A|-----------------------------------------------------------------------------
E|-----------------------------------------------------------------------------

Stave 3:

E|------19b20r19--15------19b20r19--15--15----18b19b19r18--15--17--17b18r17--15----------
B|--17----------------17---------------------------------------------------------17--15--
G|---------------------------------------------------------------------------------------
D|---------------------------------------------------------------------------------------
A|---------------------------------------------------------------------------------------
E|---------------------------------------------------------------------------------------

Stave 4:

E|---------------------------------------
B|----------------------------16/17--15--
G|---------12--14--14/16--17-------------
D|--12h14--------------------------------
A|---------------------------------------
E|---------------------------------------

http://www.guitartabcreator.com
Guitar Tab Creator is intended to store guitar tab created through the tool. It currently does not support in-line text editing. Any text you place in here will be lost. If you need to comment on your tab, please use the "Tab Notes" section located below.