Sound will begin in 5 seconds

Wonderful Tonight - Singing Solo

01234567891011121314151617181920212223
E
B
G
D
A
E
B
0 1 2 3 4 5 6 7 8 9 10 11 12 13 14 15 16 17 18 19 20 21 22 23
Song Science #1: How Pros Use 6 Chords to Write Hit Songs
(/) Slide Up  (\) Slide Down  (h) Hammer On  (p) Pull Off  (b) Bend (r) Release (v) Vibrato

Stave 1:

E|--------------------------------------------------------10-----------------------------------
B|-------8--10--10b12v---------8--10--10b12r10--8--10/12-------------8--10--10/12v--10b12r10v--
G|--8/9-------------------8/9-----------------------------------8/9----------------------------
D|---------------------------------------------------------------------------------------------
A|---------------------------------------------------------------------------------------------
E|---------------------------------------------------------------------------------------------

Stave 2:

E|---------------------------------------------------------------------------------------------15v--
B|---------------10--12v----12--13--15v----12--13--15b17v--17r15--12----12--13--15/17--17b19v-------
G|--7b9r7--7/12-------------------------------------------------------------------------------------
D|--------------------------------------------------------------------------------------------------
A|--------------------------------------------------------------------------------------------------
E|--------------------------------------------------------------------------------------------------

Stave 3:

E|-----------------------------------------------------------------------------------------------
B|--15b17r15--15--12--15--15--12--15--15/17----15b17r15---------15-------------------------------
G|-------------------------------------------------------14/16------16\14--12------14b16r14--12--
D|-----------------------------------------------------------------------------14----------------
A|-----------------------------------------------------------------------------------------------
E|-----------------------------------------------------------------------------------------------

Stave 4:

E|--14--14b15v-------------------------15--17--15------15---------------------------------
B|--------------15b17--17r15----15/17--------------17------12--13--15--12--13--15--15/17--
G|----------------------------------------------------------------------------------------
D|----------------------------------------------------------------------------------------
A|----------------------------------------------------------------------------------------
E|----------------------------------------------------------------------------------------

Stave 5:

E|--
B|--
G|--
D|--
A|--
E|--

http://www.guitartabcreator.com
Guitar Tab Creator is intended to store guitar tab created through the tool. It currently does not support in-line text editing. Any text you place in here will be lost. If you need to comment on your tab, please use the "Tab Notes" section located below.