Sound will begin in 5 seconds

Wonderful Tonight

01234567891011121314151617181920212223
E
B
G
D
A
E
B
0 1 2 3 4 5 6 7 8 9 10 11 12 13 14 15 16 17 18 19 20 21 22 23
Song Science #1: How Pros Use 6 Chords to Write Hit Songs
(/) Slide Up  (\) Slide Down  (h) Hammer On  (p) Pull Off  (b) Bend (r) Release (v) Vibrato

Stave 1:

E|-----------------------------------------------------------------
B|-----10b12r10--8--10---------10b12r10--8------------10b12r10--8--
G|--7-----------------------7---------------9------7---------------
D|-----------------------------------------------------------------
A|-----------------------------------------------------------------
E|-----------------------------------------------------------------

Stave 2:

E|---------------------------------------------------------------------------------------------
B|-------10p12r10--8--10---------10b12r10--8------------10b12r10--8--10--10/12--13--13/17--15--
G|----7-----------------------7---------------9------7-----------------------------------------
D|---------------------------------------------------------------------------------------------
A|---------------------------------------------------------------------------------------------
E|---------------------------------------------------------------------------------------------

Stave 3:

E|---------------------------------------------------17b19r17--17--17--------17b19r17--
B|--------------------12--13--15--15/17--15------15----------------------15------------
G|------------12--14-------------------------------------------------------------------
D|----12--14---------------------------------------------------------------------------
A|-------------------------------------------------------------------------------------
E|-------------------------------------------------------------------------------------

Stave 4:

E|--15--14-----------------------------------------------------------------------------------
B|----------17--15------15--15--17------15h17b20r17----15--13--12h13p12--------------12--12--
G|------------------16---------------------------------------------------14--12--------------
D|-------------------------------------------------------------------------------14----------
A|-------------------------------------------------------------------------------------------
E|-------------------------------------------------------------------------------------------

Stave 5:

E|------------------------------------------
B|-------------------------------15/17--15--
G|---------12--12h14--14/16--17-------------
D|--12h14-----------------------------------
A|------------------------------------------
E|------------------------------------------

http://www.guitartabcreator.com
Guitar Tab Creator is intended to store guitar tab created through the tool. It currently does not support in-line text editing. Any text you place in here will be lost. If you need to comment on your tab, please use the "Tab Notes" section located below.