Sound will begin in 5 seconds

Harmony in Discord

01234567891011121314151617181920212223
E
B
G
D
A
E
B
0 1 2 3 4 5 6 7 8 9 10 11 12 13 14 15 16 17 18 19 20 21 22 23
Song Science #1: How Pros Use 6 Chords to Write Hit Songs
(/) Slide Up  (\) Slide Down  (h) Hammer On  (p) Pull Off  (b) Bend (r) Release (v) Vibrato

Stave 1:

D|--------------------------------------------
A|--------------------------0-----------0--8--
F|--------------0--------0-----------0--------
C|-----5-----5--------5-----------5-----------
G|--------------------------------------------
D|--3-----3--------3-----------3--------------

Stave 2:

D|---------------------------------------------------------------------
A|--0--2--3--3/8--7--3-----3-----3--0--2--3--3/8--7--2--3-----5-----5--
F|----------------------0-----0----------------------------0-----0-----
C|---------------------------------------------------------------------
G|---------------------------------------------------------------------
D|---------------------------------------------------------------------

Stave 3:

D|---------------------------------------------
A|-----12--15-----10--12-----12--15-----8--10--
F|--0----------0----------0----------0---------
C|---------------------------------------------
G|---------------------------------------------
D|---------------------------------------------

Stave 4:

D|-------------------------------------------------
A|--8--10--8----7--8--7----3--2h3p2h3p2h3p2h3p2h3--
F|-------------------------------------------------
C|-------------------------------------------------
G|-------------------------------------------------
D|-------------------------------------------------

Stave 5:

D|------------------------------------------------------------
A|--0--2--3----3/8--8----7--8----8/10--10----2h3p2h3p2h3p2h3--
F|------------------------------------------------------------
C|------------------------------------------------------------
G|------------------------------------------------------------
D|------------------------------------------------------------

Stave 6:

D|--------------------------------------------------------------------------
A|--0--2--3/7\3--2--0--0--0----0--2--3/7\3--2--0--0--0----0--2--3--3--3--3--
F|--------------------------------------------------------------------------
C|--------------------------------------------------------------------------
G|--------------------------------------------------------------------------
D|--------------------------------------------------------------------------

Stave 7:

D|-------------------------------------
A|--0--2--3--3/7--7----7--8--8/10--10--
F|-------------------------------------
C|-------------------------------------
G|-------------------------------------
D|-------------------------------------

Stave 8:

D|------------------------------------------------------------------------------------------------
A|--7--8--7--5--7--5------------------------------------------------------------------------------
F|--------------------7--6----4--6--4---------4--6--7--6----4h6p4---------------------------------
C|---------------------------------------7-------------------------7--5h7p5----4h5p4--------------
G|--------------------------------------------------------------------------------------5--5/10v--
D|------------------------------------------------------------------------------------------------

Stave 9:

D|--------------------------------------------------
A|--------------------------------------------------
F|--------------------------------------------------
C|--7--7--7--7--7--7--7--7--4--4--4--4--5--5--5--5--
G|--5--5--5--5--5--5--5--5--5--5--5--5--5--5--5--5--
D|--------------------------------------------------

Stave 10:

D|---------------------------------------------
A|---------------------------------------------
F|---------------------------------------------
C|--7--7--7--7--7--7--7--7----4--5----5--5--5--
G|--5--5--5--5--5--5--5--5----5--5----5--5--5--
D|---------------------------------------------

Stave 11:

D|-----------------------------------
A|--2--3--3----3--3----2--3----3--3--
F|--0--0--0----0--0----0--0----0--0--
C|-----------------------------------
G|-----------------------------------
D|-----------------------------------

Stave 12:

D|----------------------------------------------------------------
A|--2--3--3--3----3--3--3--3----3--3--3--3----3--3--3----3--3--3--
F|--0-------------------------------------------------------------
C|----------------------------------------------------------------
G|----------------------------------------------------------------
D|----------------------------------------------------------------

Stave 13:

D|--2--3--3--3--3--3--3--3------3--3--3--3----3--3--3----3--3--3--
A|--0-----------0--0------------0--0----------0--0----------------
F|----------------------------------------------------------------
C|----------------------------------------------------------------
G|----------------------------------------------------------------
D|----------------------------------------------------------------

Stave 14:

D|--
A|--
F|--
C|--
G|--
D|--

http://www.guitartabcreator.com
Guitar Tab Creator is intended to store guitar tab created through the tool. It currently does not support in-line text editing. Any text you place in here will be lost. If you need to comment on your tab, please use the "Tab Notes" section located below.