Sound will begin in 5 seconds

Someone - Metal Militia

01234567891011121314151617181920212223
E
B
G
D
A
E
B
0 1 2 3 4 5 6 7 8 9 10 11 12 13 14 15 16 17 18 19 20 21 22 23
Song Science #1: How Pros Use 6 Chords to Write Hit Songs
(/) Slide Up  (\) Slide Down  (h) Hammer On  (p) Pull Off  (b) Bend (r) Release (v) Vibrato

Stave 1:

E|--------------
B|--------------
G|--------------
D|--------6--5--
A|-----5--------
E|--7-----------

Stave 2:

E|--------------
B|--------------
G|--------------
D|--------6--5--
A|-----5--------
E|--7-----------

Stave 3:

E|--------------
B|--------------
G|--------------
D|--------6--5--
A|-----5--------
E|--7-----------

Stave 4:

E|--------------
B|--------------
G|--------------
D|--------6--5--
A|-----5--------
E|--7-----------

Stave 5:

E|-----------------------
B|--------------------5--
G|--------------4--3-----
D|--------6--5-----------
A|-----5-----------------
E|--7--------------------

Stave 6:

E|-----------------------------
B|--------------------------6--
G|--------------4--3--4--5-----
D|--------6--5-----------------
A|-----5-----------------------
E|--7--------------------------

Stave 7:

E|--------------------------
B|--------------------------
G|--------------4--3--4--5--
D|--------6--5--------------
A|-----5--------------------
E|--7-----------------------

Stave 8:

E|-----------------
B|-----------------
G|-----------------
D|--------5--6--7--
A|-----6-----------
E|--7--------------

Stave 9:

E|-----------------------------7-----9------11------11------9-----7-----19--20--21------18------16--
B|--------------------------6-----8-----10------12------10-----8-----6--------------20------17------
G|-----------------4--3--5--------------------------------------------------------------------------
D|-----------6--5-----------------------------------------------------------------------------------
A|-----6--5-----------------------------------------------------------------------------------------
E|--7-----------------------------------------------------------------------------------------------

Stave 10:

E|--21------------------19------17------14------6--2--8--
B|------21------20--19------18------16------13-----------
G|----------21-------------------------------------------
D|-------------------------------------------------------
A|-------------------------------------------------------
E|-------------------------------------------------------

Stave 11:

E|--------------
B|--------------
G|--------------
D|--------6--5--
A|-----5--------
E|--7-----------

Stave 12:

E|--------------
B|--------------
G|--------------
D|--------6--5--
A|-----5--------
E|--7-----------

Stave 13:

E|----------------------------------
B|--------------21------------------
G|------------------20--------------
D|--------6--5----------21----------
A|-----5--------------------20------
E|--7---------------------------21--

Stave 14:

E|--21------------------------------------------
B|------20--21----------------------------------
G|--------------20--21--------------------------
D|----------------------20--21------------------
A|------------------------------20--21----------
E|--------------------------------------20--21--

Stave 15:

E|-----------
B|-----------
G|--0--------
D|-----0-----
A|-----------
E|--------7--

http://www.guitartabcreator.com
Guitar Tab Creator is intended to store guitar tab created through the tool. It currently does not support in-line text editing. Any text you place in here will be lost. If you need to comment on your tab, please use the "Tab Notes" section located below.