Sound will begin in 5 seconds

D Harmonic Minor Modes

01234567891011121314151617181920212223
E
B
G
D
A
E
B
0 1 2 3 4 5 6 7 8 9 10 11 12 13 14 15 16 17 18 19 20 21 22 23
Song Science #1: How Pros Use 6 Chords to Write Hit Songs
(/) Slide Up  (\) Slide Down  (h) Hammer On  (p) Pull Off  (b) Bend (r) Release (v) Vibrato

Stave 1:

D|--------------------------------------2--3--5--
A|-----------------------------1--4--5-----------
F|-----------------------2--4--------------------
C|--------------1--2--4--------------------------
G|--------2--3-----------------------------------
D|--2--3-----------------------------------------

Stave 2:

D|-----------------------------------------------3--5--7--
A|--------------------------------------4--5--7-----------
F|-----------------------------2--4--5--------------------
C|--------------------2--4--5-----------------------------
G|-----------2--3--6--------------------------------------
D|--2--3--5-----------------------------------------------

Stave 3:

D|-----------------------------------------------5--7--8--
A|--------------------------------------5--7--8-----------
F|-----------------------------4--5--8--------------------
C|--------------------4--5--7-----------------------------
G|-----------3--6--7--------------------------------------
D|--3--5--7-----------------------------------------------

Stave 4:

D|------------------------------------------------7--8--11--
A|--------------------------------------7--8--10------------
F|-----------------------------5--8--9----------------------
C|--------------------5--7--9-------------------------------
G|-----------6--7--9----------------------------------------
D|--5--7--8-------------------------------------------------

Stave 5:

D|-----------------------------------------------------8--11--12--
A|------------------------------------------8--10--12-------------
F|--------------------------------8--9--11------------------------
C|----------------------7--9--10----------------------------------
G|------------7--9--10--------------------------------------------
D|--7--8--11------------------------------------------------------

Stave 6:

D|----------------------------------------------------------11--12--14--
A|----------------------------------------------10--12--13--------------
F|-----------------------------------9--11--12--------------------------
C|------------------------9--10--13-------------------------------------
G|-------------9--10--12------------------------------------------------
D|--8--11--12-----------------------------------------------------------

Stave 7:

D|--------------------------------------------------------------12--14--15--
A|--------------------------------------------------12--13--16--------------
F|--------------------------------------11--12--14--------------------------
C|--------------------------10--13--14--------------------------------------
G|--------------10--12--14--------------------------------------------------
D|--11--12--14--------------------------------------------------------------

Stave 8:

D|--------------------------------------------------------------14--15--17--
A|--------------------------------------------------13--16--17--------------
F|--------------------------------------12--14--16--------------------------
C|--------------------------13--14--16--------------------------------------
G|--------------12--14--15--------------------------------------------------
D|--12--14--15--------------------------------------------------------------

http://www.guitartabcreator.com
Guitar Tab Creator is intended to store guitar tab created through the tool. It currently does not support in-line text editing. Any text you place in here will be lost. If you need to comment on your tab, please use the "Tab Notes" section located below.