Sound will begin in 5 seconds

CapoSonic Starts

01234567891011121314151617181920212223
E
B
G
D
A
E
B
0 1 2 3 4 5 6 7 8 9 10 11 12 13 14 15 16 17 18 19 20 21 22 23
Song Science #1: How Pros Use 6 Chords to Write Hit Songs
(/) Slide Up  (\) Slide Down  (h) Hammer On  (p) Pull Off  (b) Bend (r) Release (v) Vibrato

Stave 1:

E|-----------------5-----------------------9-----
B|--2----------------------------------10--------
G|-----2--------------------6-----------------9--
D|--------2--------------7---------11------------
A|-----------4--------7--------12----------------
E|--------------5--------------------------------

Stave 2:

E|--------------------------8-------------12------------------
B|--1--------5------------------------------------13----------
G|--------------5----------------------9------12--------------
D|-----2-----------5---------------10-----------------14------
A|--------3--------------7-----10-------------------------15--
E|--------------------8---------------------------------------

Stave 3:

E|--------3-----------7-----------------------------------15--
B|-----------------------8----------------12------------------
G|-----------------4--------7---------12----------------------
D|--------------5--------------9--------------12--------------
A|-----2-----5--------------------10------------------14------
E|--3---------------------------------------------15----------

Stave 4:

E|-----------4-------------------------------12--------------
B|--------------5-----------9--------------------------------
G|--1--------------4-----------9-----------------13----------
D|-----2--------------6-----------9------------------14------
A|--------2--------------7---------------11--------------14--
E|-----------------------------------12----------------------

Stave 5:

E|--2------------------------------10--------------14------------------
B|-----3-----------7---------------------------------------15----------
G|--------2-----------7----------------11--------------14--------------
D|-----------4-----------7-----------------12------------------16------
A|--------------5---------------9--------------12------------------17--
E|--------------------------10-----------------------------------------

http://www.guitartabcreator.com
Guitar Tab Creator is intended to store guitar tab created through the tool. It currently does not support in-line text editing. Any text you place in here will be lost. If you need to comment on your tab, please use the "Tab Notes" section located below.