Sound will begin in 5 seconds

Lava Dance

01234567891011121314151617181920212223
E
B
G
D
A
E
B
0 1 2 3 4 5 6 7 8 9 10 11 12 13 14 15 16 17 18 19 20 21 22 23
Song Science #1: How Pros Use 6 Chords to Write Hit Songs
(/) Slide Up  (\) Slide Down  (h) Hammer On  (p) Pull Off  (b) Bend (r) Release (v) Vibrato

Stave 1:

E|-----------------------------------------------------------
B|-----------------------------------------------------------
G|-----------------------------------------------------------
D|-----------------------------------------------------------
A|-----8---7-8---0---7h8---10-----8---7-8-----10---8---7---8-
E|-0-0---0-----0---0-----0----7-7---7-----7-8----8---8---8---

Stave 2:

E|-----------------------------------------------------------------
B|-----------------------------------------------------------------
G|-----------------------------------------------------------------
D|-------------------------10-------------------10------7h8p7------
A|-----8---7-8---0---8-7h8----8p7-----8---7-8--------12-------8/10-
E|-0-0---0-----0---0--------------7-7---7-----8----8---------------

Stave 3:

E|-------------------------------------------------------------------
B|-------------------------------------------------------------------
G|-------------------------------------------------------------------
D|-------------------------10-------------------10------7h8p7--------
A|-----8---7-8---0---8-7h8----8p7-----8---7-8--------12-------8/10---
E|-0-0---0-----0---0--------------7-7---7-----8----8-----------------

Stave 4:

E|-----------------------------------------------------------------
B|-----------------------------------------------------------------
G|-----------------------------------------------------------------
D|-------------------------10-------------------10------7h8p7------
A|-----8---7-8---0---8-7h8----8p7-----8---7-8--------12-------8/10-
E|-0-0---0-----0---0--------------7-7---7-----8----8---------------

Stave 5:

E|------------------------------------------------------------------------------------
B|------------------------------------------------------------------------------------
G|---------------------------------------------------------------------------17-12-14-
D|---------------------------------14------------------------14--------14-15----------
A|-----12---10h12---0---12---10-12----12-10-0-0-12-0-10-12-0----0-12-0----------------
E|-0-0----0-------0---0----0----------------------------------------------------------

Stave 6:

E|----------------------------
B|----------------------------
G|----------------------------
D|-0-------------8------5-----
A|-0-------------8------5-----
E|-0-------------8------5-----

Stave 7:

E|-----------------------------------------------------------------
B|-----------------------------------------------------------------
G|-----------6-7-10-7-6-7-6-----7---------10-9---------------------
D|-------7-8----------------8-7-----10-12------10------------7-5-3-
A|---5-8------------------------------------------12---5-3-5-------
E|-0------------------------------8------------------5-------------

Stave 8:

E|---------------------------------------------------------------
B|---------------------------------------------------------------
G|---------------------------------------------------------------
D|-----0---3-5-7---8---7---7-7h8p7-------------------------------
A|---------------------------------10-----10---10/12--5-5--1-1---
E|-0-0---0-------7---7---7------------8-8----8--------5-5--1-1---

Stave 9:

E|-------------------------------------------------------------
B|-------------------------------------------------------------
G|-------------------------------------------------------------
D|-----0---3-5-7---8---7---7-7h8p7-----------------------------
A|---------------------------------10-----10---10/12--5-5--1-1-
E|-0-0---0-------7---7---7------------8-8----8--------5-5--1-1-

Stave 10:

E|-----------------------------------------------------------------
B|-----------------------------------------------------------------
G|-----------------------------------------------------------------
D|-----------------------------------------------------------------
A|-----12---10---8-----8---7---5-1-1-1-1-1-1-1-1-1-1-1-1-1-1-1-1---
E|-8-8----8----8---5-5---5---5---1-1-1-1-1-1-1-1-1-1-1-1-1-1-1-1---

Stave 11:

E|------------------------------------------------------------
B|------------------------------------------------------------
G|------------------------------------------------------------
D|-8-----------5----------1-----------------------------------
A|-8-----------5----------1-----------------------------------
E|-8-----------5----------1-----------------------------------

Stave 12:

E|------------------------------------------------------------
B|------------------------------------------------------------
G|------------------------------------------------------------
D|------------------------------------------------------------
A|-----8---7h8-----8---7h8-----10---8---10---12---10---8h10p8-
E|-0-0---0-----7-7---7-----8-8----8---8----8----8----8--------

Stave 13:

E|-----------------------------------------------------------
B|-----------------------------------------------------------
G|-----------------------------------------------------------
D|-----------------------------------------------------------
A|-----8---7h8-----8---7h8-8-8-8-8-8-8-8-8-8-8-8-8-8-8-8-8---
E|-0-0---0-----7-7---7-----8-8-8-8-8-8-8-8-8-8-8-8-8-8-8-8---

Stave 14:

E|-----------------------------------------------
B|-----------------------------------------------
G|-----------------------------------------------
D|-------------------------10-10-----------------
A|-----8---7h8-----8---7h8-8--8--12-12-8-8-10-10-
E|-0-0---0-----7-7---7-----8--8--8--8--8-8-8--8--

Stave 15:

E|-----------------------------------------------
B|-----------------------------------------------
G|-----------------------------------------------
D|-------------------------10-10-----------------
A|-----8---7h8-----8---7h8-8--8--12-12-8-8-10-10-
E|-0-0---0-----7-7---7-----8--8--8--8--8-8-8--8--

Stave 16:

E|----------------------
B|----------------------
G|----------------------
D|-0----------0---------
A|-0----------0---------
E|-0----------0---------

Stave 17:

E|----------------------
B|----------------------
G|----------------------
D|-0----------0---------
A|-0----------0---------
E|-0----------0---------

Stave 18:

E|-----------------------------------------------------------------
B|-----------------------------------------------------------------
G|-----------------------------------------------------------------
D|-----------------------------------------------------------------
A|-0-0-0-0-0-0-0-0-0-0-0-0-0-0-0-0-0-0-0-0-0-0-0-0-0-0-0-0-0-0-0-0-
E|-0-0-0-0-0-0-0-0-0-0-0-0-0-0-0-0-0-0-0-0-0-0-0-0-0-0-0-0-0-0-0-0-

Stave 19:

E|------------------------------------
B|------------------------------------
G|------------------------------------
D|-0----------------0-----------------
A|-0----------------0-----------------
E|-0----------------0-----------------

Stave 20:

E|---------------------------------------------------
B|---------------------------------------------------
G|---------------------------------------------------
D|-0-----------0------10-----5-----------5-----------
A|-0-0-0-0-0-0-0----8----8---5-5-5-5-5-5-5-5---4-5-7-
E|-0-0-0-0-0-0-0--8--------8-5-5-5-5-5-5-5-5-7-------

Stave 21:

E|---------------------------------------------------
B|---------------------------------------------------
G|---------------------------------------------------
D|-0-----------0------10-----5-----------5-----------
A|-0-0-0-0-0-0-0----8----8---5-5-5-5-5-5-5-5---4-5-7-
E|-0-0-0-0-0-0-0--8--------8-5-5-5-5-5-5-5-5-7-------

Stave 22:

E|-------------------------------------------------------------------------------------------------
B|-------------------------------------------------------------------------------------------------
G|-------------------------------------------------------------------------------------------------
D|-------------------------------------------------------------------------------------------------
A|-----8---7---8---10---8---7h8p7-----8---7---8---5---7---7h8p7-----10---8---10---12---10---8h10p8-
E|-0-0---0---0---0----0---0-------5-5---5---5---5---5---5-------8-8----8---8----8----8----8--------

Stave 23:

E|--------------------------
B|--------------------------
G|--------------------------
D|--------------------------
A|-----8-7h8-------8----7h8-
E|-7-7-------11-11---11-----

Stave 24:

E|-----------------------------------------------------------------------------------------------------
B|-----------------------------------------------------------------------------------------------------
G|-----------------------------------------------------------------------------------------------------
D|-----------------------------------------------------------------------------------------------------
A|-0-0-0-0-0-0-0-0-0-0-0-0-0-0-0-5-5-5-5-5-5-5-5-5-5-5-5-5-5-5-8-8-8-8-8-8-8-8-8-8-8-8-8-8-8-8-8-------
E|-0-0-0-0-0-0-0-0-0-0-0-0-0-0-0-5-5-5-5-5-5-5-5-5-5-5-5-5-5-5-8-8-8-8-8-8-8-8-8-8-8-8-8-8-8-8-8-------

Stave 25:

E|-----------------------------
B|-----------------------------
G|-----------------------------
D|-----------------------------
A|-7-7-7-7-7-7--7--7--7--7--7--
E|-7-7-7-7-7-11-11-11-11-11-11-

Stave 26:

E|---
B|---
G|---
D|-0-
A|-0-
E|-0-

http://www.guitartabcreator.com
Guitar Tab Creator is intended to store guitar tab created through the tool. It currently does not support in-line text editing. Any text you place in here will be lost. If you need to comment on your tab, please use the "Tab Notes" section located below.