Sound will begin in 5 seconds

Working On

01234567891011121314151617181920212223
E
B
G
D
A
E
B
0 1 2 3 4 5 6 7 8 9 10 11 12 13 14 15 16 17 18 19 20 21 22 23
Song Science #1: How Pros Use 6 Chords to Write Hit Songs
(/) Slide Up  (\) Slide Down  (h) Hammer On  (p) Pull Off  (b) Bend (r) Release (v) Vibrato

Stave 1:

E|------------
B|------------
G|------------
D|--7--11--9--
A|--7--11--9--
E|--7--11--9--

Stave 2:

E|-----------------------------
B|-----------------------------
G|--8--8--4--4--6--6--6--8--6--
D|--9--9--1--1--6--6-----------
A|--7--7--2--4--4--4--4--6--4--
E|--7--7-----------------------

Stave 3:

E|-----------
B|-----------
G|--8--8-----
D|--9--9--6--
A|--7--7--4--
E|--7--7--4--

Stave 4:

E|-----------------------
B|-----------------------
G|-----8--8--4--4--6--6--
D|-----9--9--1--1--6--6--
A|-----7--7--2--2--4--4--
E|--7-----7--------------

Stave 5:

E|--------------------------------
B|--------------------------------
G|--8-----------------------------
D|--9-----------11p9------14--13--
A|--7--4/7h9p7--------11--11--9---
E|--7---------------------11--9---

Stave 6:

E|-----------
B|-----------
G|--8--------
D|--9--2--6--
A|--7--2--4--
E|--7--2--4--

Stave 7:

E|-----------------------------------------------------------------------
B|-----------------------------------------------------------------------
G|--8-----8h9p8--------8-----8h9p8--------8-----8-------4-----1/4--2--1--
D|--9------------9-----9------------9-----6--------6----1----------------
A|--7---------------7--7---------------7--7--7--------7\2--2-------------
E|--7--7---------------7--7----------------------------------------------

http://www.guitartabcreator.com
Guitar Tab Creator is intended to store guitar tab created through the tool. It currently does not support in-line text editing. Any text you place in here will be lost. If you need to comment on your tab, please use the "Tab Notes" section located below.