Sound will begin in 5 seconds

Taz song #2

01234567891011121314151617181920212223
E
B
G
D
A
E
B
0 1 2 3 4 5 6 7 8 9 10 11 12 13 14 15 16 17 18 19 20 21 22 23
Song Science #1: How Pros Use 6 Chords to Write Hit Songs
(/) Slide Up  (\) Slide Down  (h) Hammer On  (p) Pull Off  (b) Bend (r) Release (v) Vibrato

Stave 1:

E|-------------------------------------
B|-------------------------------------
G|--6--11--9-------------11--9---------
D|--7---------11--9--11---------11--9--
A|--5----------------9-----------------
E|-------------------9-----------------

Stave 2:

E|--------------------
B|--------------------
G|--6--6----------11--
D|--7--7--11--11--11--
A|--5--5--9---9---9---
E|--------9---9-------

Stave 3:

E|--------------------------
B|--------------------------
G|--6--9------6--9----------
D|--7--5--11--7--5--11--14--
A|--5-----9---5-----9---12--
E|-----7--9------7--9---12--

Stave 4:

E|-------------------------
B|-------------------------
G|-----9------------9------
D|--7--5--14--9--7--5--14--
A|--4-----12--7--4-----12--
E|--4--7--12--7--4--7--12--

Stave 5:

E|------------
B|------------
G|------------
D|--11--9--7--
A|--7---5--4--
E|--7---5--4--

http://www.guitartabcreator.com
Guitar Tab Creator is intended to store guitar tab created through the tool. It currently does not support in-line text editing. Any text you place in here will be lost. If you need to comment on your tab, please use the "Tab Notes" section located below.