Sound will begin in 5 seconds

This Song Isn't For Hippies or People Who Try to Break The Mainstream

01234567891011121314151617181920212223
E
B
G
D
A
E
B
0 1 2 3 4 5 6 7 8 9 10 11 12 13 14 15 16 17 18 19 20 21 22 23
Song Science #1: How Pros Use 6 Chords to Write Hit Songs
(/) Slide Up  (\) Slide Down  (h) Hammer On  (p) Pull Off  (b) Bend (r) Release (v) Vibrato

Stave 1:

D|--------------------------------------------------------------------------------------------------
A|--------------------------------------------------------------------------------------------------
F|--------------------------------------------------------------------------------------------------
C|--0--0--0--0--0--0--0--0--0--0--0--0--0--0--0--0--4--4--4--4--4--4--4--4--5--5--5--5--5--5--5--5--
G|--0--0--0--0--0--0--0--0--0--0--0--0--0--0--0--0--4--4--4--4--4--4--4--4--5--5--5--5--5--5--5--5--
C|--0--0--0--0--0--0--0--0--0--0--0--0--0--0--0--0--4--4--4--4--4--4--4--4--5--5--5--5--5--5--5--5--

Stave 2:

D|--------------------------------------------------------------------------------------------------
A|--------------------------------------------------------------------------------------------------
F|--------------------------------------------------------------------------------------------------
C|--0--0--0--0--0--0--0--0--0--0--0--0--0--0--0--0--9--9--9--9--9--9--9--9--5--5--5--5--5--5--5--5--
G|--0--0--0--0--0--0--0--0--0--0--0--0--0--0--0--0--9--9--9--9--9--9--9--9--5--5--5--5--5--5--5--5--
C|--0--0--0--0--0--0--0--0--0--0--0--0--0--0--0--0--9--9--9--9--9--9--9--9--5--5--5--5--5--5--5--5--

Stave 3:

D|--------------------------------------------------------------------------------------------------
A|--------------------------------------------------------------------------------------------------
F|--------------------------------------------------------------------------------------------------
C|--0--0--0--0--0--0--0--0--0--0--0--0--0--0--0--0--4--4--4--4--4--4--4--4--5--5--5--5--5--5--5--5--
G|--0--0--0--0--0--0--0--0--0--0--0--0--0--0--0--0--4--4--4--4--4--4--4--4--5--5--5--5--5--5--5--5--
C|--0--0--0--0--0--0--0--0--0--0--0--0--0--0--0--0--4--4--4--4--4--4--4--4--5--5--5--5--5--5--5--5--

Stave 4:

D|--------------------------------------------------------------------------------------------------
A|--------------------------------------------------------------------------------------------------
F|--------------------------------------------------------------------------------------------------
C|--9--9--9--9--9--9--9--9--9--9--9--9--9--9--9--9--5--5--5--5--5--5--5--5--4--4--4--4--4--4--4--4--
G|--9--9--9--9--9--9--9--9--9--9--9--9--9--9--9--9--5--5--5--5--5--5--5--5--4--4--4--4--4--4--4--4--
C|--9--9--9--9--9--9--9--9--9--9--9--9--9--9--9--9--5--5--5--5--5--5--5--5--4--4--4--4--4--4--4--4--

Stave 5:

D|-----------------------------------------------------------------------------------------------------
A|-----------------------------------------------------------------------------------------------------
F|-----------------------------------------------------------------------------------------------------
C|--0--0--0--0--0--0--0--0--0--0--0--0--0--0--0--0--2--2--2--2--2--2--2--2--5--5--5--5--5--5--5--5-----
G|--0--0--0--0--0--0--0--0--0--0--0--0--0--0--0--0--2--2--2--2--2--2--2--2--5--5--5--5--5--5--5--5-----
C|--0--0--0--0--0--0--0--0--0--0--0--0--0--0--0--0--2--2--2--2--2--2--2--2--5--5--5--5--5--5--5--5-----

Stave 6:

D|-------------------------------------------------------------------------------------------------------
A|-------------------------------------------------------------------------------------------------------
F|-------------------------------------------------------------------------------------------------------
C|--9--9--9--9--9--9--9--9--9--9--9--9--12--12--12--12--7--7--7--7--7--7--7--7--7--7--7--12--12--12--12--
G|--9--9--9--9--9--9--9--9--9--9--9--9--12--12--12--12--7--7--7--7--7--7--7--7--7--7--7--12--12--12--12--
C|--9--9--9--9--9--9--9--9--9--9--9--9--12--12--12--12--7--7--7--7--7--7--7--7--7--7--7--12--12--12--12--

Stave 7:

D|--------------------------------------------------
A|--------------------------------------------------
F|--------------------------------------------------
C|--7--7--7--7--7--7--7--7--7--7--7--7--7--7--7--7--
G|--5--5--5--5--5--5--5--5--5--5--5--5--5--5--5--5--
C|--5--5--5--5--5--5--5--5--5--5--5--5--5--5--5--5--

Stave 8:

D|------------------------
A|------------------------
F|------------------------
C|------------------------
G|--9--12--7--2--5--4--5--
C|--0--0---0--0--0--0--0--

http://www.guitartabcreator.com
Guitar Tab Creator is intended to store guitar tab created through the tool. It currently does not support in-line text editing. Any text you place in here will be lost. If you need to comment on your tab, please use the "Tab Notes" section located below.