Sound will begin in 5 seconds

NIGGA ASS PUSSY STANK HEAVY POP PUNK

01234567891011121314151617181920212223
E
B
G
D
A
E
B
0 1 2 3 4 5 6 7 8 9 10 11 12 13 14 15 16 17 18 19 20 21 22 23
Song Science #1: How Pros Use 6 Chords to Write Hit Songs
(/) Slide Up  (\) Slide Down  (h) Hammer On  (p) Pull Off  (b) Bend (r) Release (v) Vibrato

Stave 1:

E|-----------------------------------------------------------------------------------------------------------
B|-----------------------------------------------------------------------------------------------------------
G|--------------------------------------------------------------5--7--------------------------2--3--2--3-----
D|-----------------5-----5-----7-----7-----2-----2--------------5--7--2-----------------------2--3--2--3-----
A|-----------------------------------------------------------------------------------------------------------
E|--0--0--0--0--7-----7-----8-----8-----3-----3-----0--0--0--0--7--8--3--0--0--0--0--0--0--0--3--5--3--5--0--

Stave 2:

E|------------------------------------------------------------------------------------------------------------
B|------------------------------------------------------------------------------------------------------------
G|---------------------------------------9--------------------------------------------------------------------
D|--------------7--------10--------7--------------------------------------------------------------------------
A|---------------------------------------------------5--7--5--7--3--5--7--5--7--3-----------------------------
E|--0--0--0--8-----8--8------8--8-----8-----0--0--0--------------------------------0--0--0--0--0--0--0--0--0--

Stave 3:

E|--------------------------------------------
B|--------------------------------------------
G|--8--8--8--6--6--6--6--6--6--8--------------
D|--0--0--0--0--0--0--0--7--7--7--7--7--5--5--
A|--7--7--7--7--7--7--7--7--7--7--------------
E|-----------------------7--7--7--5--5--3--3--

Stave 4:

E|-----------------------------------------------------------------------
B|-----------------------------------------------------------------------
G|--------------------5--7--------5--7--------9--7--7--5--5--3-----------
D|--------------3--5--------3--5-----------------------------------------
A|--------------------------------------------------------------3--3--0--
E|--0--0--0--0--------------------------8--8--------------------3--3--0--

Stave 5:

E|-----------------------------------------------------------------------------------------------------------
B|-----------------------------------------------------------------------------------------------------------
G|-----------------------------------------------------------------------------------------------------------
D|-----------------------------------------------------------------------------------------------------------
A|-----------------------------------5--1--------5--1--------------1--5--1--5-----------5--1--------5--1-----
E|--0--0--0--0--1--5--1--5--0--0--0--------5--1--------5--1--0--0--1--5--1--5--0--0--0--------5--1--------0--

http://www.guitartabcreator.com
Guitar Tab Creator is intended to store guitar tab created through the tool. It currently does not support in-line text editing. Any text you place in here will be lost. If you need to comment on your tab, please use the "Tab Notes" section located below.