Sound will begin in 5 seconds

Absent Mind

01234567891011121314151617181920212223
E
B
G
D
A
E
B
0 1 2 3 4 5 6 7 8 9 10 11 12 13 14 15 16 17 18 19 20 21 22 23
Song Science #1: How Pros Use 6 Chords to Write Hit Songs
(/) Slide Up  (\) Slide Down  (h) Hammer On  (p) Pull Off  (b) Bend (r) Release (v) Vibrato

Stave 1:

E|--------------
B|--------------
G|-----3--------
D|--------4-----
A|--2--------2--
E|--------------

Stave 2:

E|--------------------
B|--------------------
G|--3--3--------------
D|--4--4--8--8--2--2--
A|--2--2--6--6--2--2--
E|--------6--6--2--2--

Stave 3:

E|--------------------------
B|--------------------------
G|--------------3--3--6--6--
D|--8--8--2--2--4--4--6--6--
A|--6--6--2--2--2--2--4--4--
E|--6--6--2--2--------------

Stave 4:

E|-----------------------------------------------------------------------
B|-----------------------------------------------------------------------
G|---------------------------3-----3----------------3-----3--------------
D|--8-----8-----------11b12--4--------4--------6b7--4--------4--------7--
A|--6--------6-----------2---2--2--------2--2-------2--2--------2--2-----
E|--6--6--------6--6-----------------------------------------------------

Stave 5:

E|--------------
B|--------------
G|--------------
D|--8--8--2--2--
A|--6--6--2--2--
E|--6--6--2--2--

Stave 6:

E|-----------------
B|-----------------
G|--3--3-----------
D|--4--4--2--6--4--
A|--2--2-----6--4--
E|--------2--6--4--

http://www.guitartabcreator.com
Guitar Tab Creator is intended to store guitar tab created through the tool. It currently does not support in-line text editing. Any text you place in here will be lost. If you need to comment on your tab, please use the "Tab Notes" section located below.