halloween theame

Chords

01234567891011121314151617181920212223
E
B
G
D
A
E
B
0 1 2 3 4 5 6 7 8 9 10 11 12 13 14 15 16 17 18 19 20 21 22 23
(/) Slide Up  (\) Slide Down  (h) Hammer On  (p) Pull Off  (b) Bend (r) Release (v) Vibrato

E|--9--------9--------9-----10-----
B|-----7--7-----7--7-----7------7--
G|---------------------------------
D|---------------------------------
A|---------------------------------
E|---------------------------------



E|--9--------9--------9-----10-----
B|-----7--7-----7--7-----7------7--
G|---------------------------------
D|---------------------------------
A|---------------------------------
E|---------------------------------



E|--9--------9--------9-----10-----
B|-----7--7-----7--7-----7------7--
G|---------------------------------
D|---------------------------------
A|---------------------------------
E|---------------------------------



E|--9--------9--------9-----10-----
B|-----7--7-----7--7-----7------7--
G|---------------------------------
D|---------------------------------
A|---------------------------------
E|---------------------------------



E|--9--------9--------9-----10-----
B|-----7--7-----7--7-----7------7--
G|---------------------------------
D|---------------------------------
A|---------------------------------
E|---------------------------------



E|--9--------9--------9-----10-----
B|-----7--7-----7--7-----7------7--
G|---------------------------------
D|---------------------------------
A|---------------------------------
E|---------------------------------



E|--8--------8--------8-----9-----
B|-----6--6-----6--6-----6-----6--
G|--------------------------------
D|--------------------------------
A|--------------------------------
E|--------------------------------



E|--8--------8--------8-----9-----
B|-----6--6-----6--6-----6-----6--
G|--------------------------------
D|--------------------------------
A|--------------------------------
E|--------------------------------



E|--9--------9--------9-----10-----
B|-----7--7-----7--7-----7------7--
G|---------------------------------
D|---------------------------------
A|---------------------------------
E|---------------------------------



E|--9--------9--------9-----10-----
B|-----7--7-----7--7-----7------7--
G|---------------------------------
D|---------------------------------
A|---------------------------------
E|---------------------------------



E|--8--------8--------8-----9-----
B|-----6--6-----6--6-----6-----6--
G|--------------------------------
D|--------------------------------
A|--------------------------------
E|--------------------------------



E|--8--------8--------8-----9-----
B|-----6--6-----6--6-----6-----6--
G|--------------------------------
D|--------------------------------
A|--------------------------------
E|--------------------------------



E|--7--------7--------7-----8-----
B|-----5--5-----5--5-----5-----5--
G|--------------------------------
D|--------------------------------
A|--------------------------------
E|--------------------------------



E|--7--------7--------7-----8-----
B|-----5--5-----5--5-----5-----5--
G|--------------------------------
D|--------------------------------
A|--------------------------------
E|--------------------------------



E|--6--------6--------6-----7-----
B|-----4--4-----4--4-----4-----4--
G|--------------------------------
D|--------------------------------
A|--------------------------------
E|--------------------------------



E|--6--------6--------6-----7-----
B|-----4--4-----4--4-----4-----4--
G|--------------------------------
D|--------------------------------
A|--------------------------------
E|--------------------------------



E|--7--------7--------7-----8-----
B|-----5--5-----5--5-----5-----5--
G|--------------------------------
D|--------------------------------
A|--------------------------------
E|--------------------------------



E|--7--------7--------7-----8-----
B|-----5--5-----5--5-----5-----5--
G|--------------------------------
D|--------------------------------
A|--------------------------------
E|--------------------------------



E|--6--------6--------6-----7-----
B|-----4--4-----4--4-----4-----4--
G|--------------------------------
D|--------------------------------
A|--------------------------------
E|--------------------------------



E|--6--------6--------6-----7-----
B|-----4--4-----4--4-----4-----4--
G|--------------------------------
D|--------------------------------
A|--------------------------------
E|--------------------------------



E|--------------------------------
B|--7--------7--------7-----8-----
G|-----4--4-----4--4-----4-----4--
D|--------------------------------
A|--------------------------------
E|--------------------------------



E|-------------------------------
B|--7--------7--------7-----8----
G|-----4--4-----4--4-----4-----4-
D|-------------------------------
A|-------------------------------
E|-------------------------------



E|--------------------------------
B|--7--------7--------7-----8-----
G|-----4--4-----4--4-----4-----4--
D|--------------------------------
A|--------------------------------
E|--------------------------------



E|--------------------------------
B|--7--------7--------7-----8-----
G|-----4--4-----4--4-----4-----4--
D|--------------------------------
A|--------------------------------
E|--------------------------------



E|--------------------------------
B|--7--------7--------7-----8-----
G|-----4--4-----4--4-----4-----4--
D|--------------------------------
A|--------------------------------
E|--------------------------------



E|--------------------------------
B|--7--------7--------7-----8-----
G|-----4--4-----4--4-----4-----4--
D|--------------------------------
A|--------------------------------
E|--------------------------------



E|--------------------------------
B|--7--------7--------7-----8-----
G|-----4--4-----4--4-----4-----4--
D|--------------------------------
A|--------------------------------
E|--------------------------------



E|--------------------------------
B|--7--------7--------7-----8-----
G|-----4--4-----4--4-----4-----4--
D|--------------------------------
A|--------------------------------
E|--------------------------------



E|--------------------------------
B|--7--------7--------7-----8-----
G|-----4--4-----4--4-----4-----4--
D|--------------------------------
A|--------------------------------
E|--------------------------------
							http://www.guitartabcreator.com

Member for

8 years 10 months
Submitted by beastyb1995 on Fri, 2011-08-05 19:53