Sound will begin in 5 seconds

Alive- Hillsong Young + Free (Original Key E)

01234567891011121314151617181920212223
E
B
G
D
A
E
B
0 1 2 3 4 5 6 7 8 9 10 11 12 13 14 15 16 17 18 19 20 21 22 23
Song Science #1: How Pros Use 6 Chords to Write Hit Songs
(/) Slide Up  (\) Slide Down  (h) Hammer On  (p) Pull Off  (b) Bend (r) Release (v) Vibrato

Stave 1:

E|----------------------------------------------------------------------------
B|----------------------------------------------------------------------------
G|----------------------------------------------------------------------------
D|----------------------------------------------------------------------------
A|-----7-----7-----2-----2-----4-----4----------4-----4-----7-----7-----6-----
E|----------------------------------------------------------------------------

Stave 2:

E|-----12-----11-----
B|-----12-----12-----
G|-----9------9------
D|-----9------9------
A|-----x------x------
E|-----x------x------

Stave 3:

E|-----12-----9------9-----11-----
B|-----12-----10-----9-----12-----
G|-----9------9------9-----9------
D|-----9------9------9-----9------
A|-----x------0------x-----x------
E|-----x------0------x-----x------

Stave 4:

E|-------------------------------------------------------------------------------------
B|-------------------------------------------------------------------------------------
G|-------------------------------------------------------------------------------------
D|-----14-----14-----9-----9-----11-----11----------11-----11-----14-----14-----13-----
A|-------------------------------------------------------------------------------------
E|-------------------------------------------------------------------------------------

http://www.guitartabcreator.com
Guitar Tab Creator is intended to store guitar tab created through the tool. It currently does not support in-line text editing. Any text you place in here will be lost. If you need to comment on your tab, please use the "Tab Notes" section located below.