Sound will begin in 5 seconds

waitn' on the day

01234567891011121314151617181920212223
E
B
G
D
A
E
B
0 1 2 3 4 5 6 7 8 9 10 11 12 13 14 15 16 17 18 19 20 21 22 23
Song Science #1: How Pros Use 6 Chords to Write Hit Songs
(/) Slide Up  (\) Slide Down  (h) Hammer On  (p) Pull Off  (b) Bend (r) Release (v) Vibrato

Stave 1:

E|-----------------------------------------------------------------------------------------
B|-----------------------------------------------------------------------------------------
G|--11b13-----------11b12b11p9-----------------------------------11b13-----------14b16b16--
D|---------12p11p9--------------11b12b11--11/12p11p9--8/9h11/12---------12p11p9------------
A|-----------------------------------------------------------------------------------------
E|-----------------------------------------------------------------------------------------

Stave 2:

E|----------------------------------------------------------------------------------------
B|----------------------------------------------------------------------------------------
G|--16b19b16--16b19b16p14h16p14\11--16b19b16p14h16p14\11--11p9\7h9/11---------------------
D|---------------------------------------------------------------------14b16b16b14p12h14--
A|----------------------------------------------------------------------------------------
E|----------------------------------------------------------------------------------------

Stave 3:

E|---------------------------------------------------------------------
B|---------------------------------------------------------------------
G|---------------------------------------------------------------------
D|--14b16--17--17--17--16--14--12h14p12--17--17--17--16--14--12h14p12--
A|---------------------------------------------------------------------
E|---------------------------------------------------------------------

Stave 4:

E|---------------------------------------------------------
B|---------------------------------------------------------
G|------------------------------------------14b16--14--14--
D|--17--17--17--16--14--12h14p12--14/16b17-----------------
A|---------------------------------------------------------
E|---------------------------------------------------------

http://www.guitartabcreator.com
Guitar Tab Creator is intended to store guitar tab created through the tool. It currently does not support in-line text editing. Any text you place in here will be lost. If you need to comment on your tab, please use the "Tab Notes" section located below.