Sound will begin in 5 seconds

Punk Song Bass

01234567891011121314151617181920212223
E
B
G
D
A
E
B
0 1 2 3 4 5 6 7 8 9 10 11 12 13 14 15 16 17 18 19 20 21 22 23
Song Science #1: How Pros Use 6 Chords to Write Hit Songs
(/) Slide Up  (\) Slide Down  (h) Hammer On  (p) Pull Off  (b) Bend (r) Release (v) Vibrato

Stave 1:

E|-------------------------------------------------------
B|-------------------------------------------------------
G|-------------------------------------------------------
D|-------------------------------------------------------
A|-----2------2-----2------2-----2--------2--------------
E|--1------------1------------1--------------3--3--3--3--

Stave 2:

E|---------------------------------------------------------
B|---------------------------------------------------------
G|---------------------------------------------------------
D|---------------------------------------------------------
A|--8---------------2------2--8------------10--10--10--10--
E|-----7------7--1---------------7------7------------------

Stave 3:

E|------------------------------------------------------
B|------------------------------------------------------
G|------------------------------------------------------
D|------------------------------------------------------
A|--11----11----11--------------------------------------
E|----------------------11--11--11--11--10--10--10--10--

Stave 4:

E|--------------------------------------------------
B|--------------------------------------------------
G|--------------------------------------------------
D|--------------------------------------------------
A|--------------------------------------------------
E|--7--7--6--6--5--5--4--4--3--3--2--2--1--1--0--1--

Stave 5:

E|------------------------------------------------------------------
B|------------------------------------------------------------------
G|------------------------------------------------------------------
D|------------------------------------------------------------------
A|------19--18------18--17------17--16------16--15------15--14------
E|--17----------16----------15----------14----------13----------12--

Stave 6:

E|------------------------------------------------------------------------------------
B|------------------------------------------------------------------------------------
G|------------------------------------------------------------------------------------
D|------------------------------------------------------------------------------------
A|------------------------------------------------------------------------------------
E|--1/4----1--5--5--5--5----------1/4------3--2--2--2--2------1/4------1--5--5--5--5--

Stave 7:

E|-----------------------------------------------------------------------------------------------------------------------
B|-----------------------------------------------------------------------------------------------------------------------
G|-----------------------------------------------------------------------------------------------------------------------
D|-----------------------------------------------------------------------------------------------------------------------
A|-----------------------------------------------------------------------------------------------------------------------
E|-----------------------------------------------------------------------------------------------------------------------

Stave 8:

E|--------------------------------------------------------------------------
B|--------------------------------------------------------------------------
G|--------------------------------------------------------------------------
D|--------------------------------------------------------------------------
A|-------------------------------------------------------------7----7----7--
E|--1/4------3--2--2--2--2--1--4--4--4--4--2--5--5--5--5--4-----------------

Stave 9:

E|-----------------------------------------------------
B|-----------------------------------------------------
G|-----------------------------------------------------
D|-----------------------------------------------------
A|-----------------------------------------------------
E|--------4--3--2--0--1--------4--3--2--0--3--2--1--0--

Stave 10:

E|----------------------------------------------------------------------------------------------------
B|----------------------------------------------------------------------------------------------------
G|----------------------------------------------------------------------------------------------------
D|----------------------------------------------------------------------------------------------------
A|----------------------------------------------------------------------------------------------------
E|--1------0--1--2------0--1--3------0--1--4--3--2--0----1------0--1--2----0--4--3--2--0--3--2--1--0--

Stave 11:

E|----------------------------------------------------------------------
B|----------------------------------------------------------------------
G|----------------------------------------------------------------------
D|----------------------------------------------------------------------
A|---------------7--8--------------7--8---------------------------------
E|--0--------------------1--2--------------2--0-------------------------

Stave 12:

E|--------------------------------------------------------
B|--------------------------------------------------------
G|--------------------------------------------------------
D|--------------------------------------------------------
A|--------------------------------------------------------
E|--6--6--6--------6--6--6--------6--6--6--------6--6--6--

Stave 13:

E|----------------------------------------------
B|----------------------------------------------
G|----------------------------------------------
D|----------------------------------------------
A|----------------------------------------------
E|--1/4--1--5--5--5--5------1/4--3--2--2--2--2--

Stave 14:

E|--------------------------------------------------
B|--------------------------------------------------
G|--------------------------------------------------
D|--------------------------------------------------
A|--------------------------------------7--7--7--7--
E|--2--2--2--1--4--4--4--2--5--5--5--4--------------

Stave 15:

E|----------------------------------------------
B|----------------------------------------------
G|----------------------------------------------
D|----------------------------------------------
A|--7----7----7----7----------------------------
E|----------------------0------0------0------0--

Stave 16:

E|------------------------------------------------------------------------------------------------------------
B|------------------------------------------------------------------------------------------------------------
G|------------------------------------------------------------------------------------------------------------
D|------------------------------------------------------------------------------------------------------------
A|-----2------2-----2------2-----2------2-----------------------2------2-----2------2-------------------------
E|--1------------1------------1------------3--3--3--3--------1------------1------------1--0------1----2----3--

Stave 17:

E|---------------------------------------------------------------
B|---------------------------------------------------------------
G|---------------------------------------------------------------
D|---------------------------------------------------------------
A|--11----11----11-----------2------2-----2------2--0----0----0--
E|------------------------1------------1-------------------------

http://www.guitartabcreator.com
Guitar Tab Creator is intended to store guitar tab created through the tool. It currently does not support in-line text editing. Any text you place in here will be lost. If you need to comment on your tab, please use the "Tab Notes" section located below.