Sound will begin in 5 seconds

Harlem Nocturne 2

01234567891011121314151617181920212223
E
B
G
D
A
E
B
0 1 2 3 4 5 6 7 8 9 10 11 12 13 14 15 16 17 18 19 20 21 22 23
Song Science #1: How Pros Use 6 Chords to Write Hit Songs
(/) Slide Up  (\) Slide Down  (h) Hammer On  (p) Pull Off  (b) Bend (r) Release (v) Vibrato

Stave 1:

E|--------0--2--3-----------------------------------5--7--8--4--5--3--0-----------------
B|-----0-----------4--5--0-----------------------5-----------------------1-----7--6--5--
G|--------------------------0--------0--4--2--------------------------------3-----------
D|--2--------------------------2--4-----------7-----------------------------------------
A|--------------------------------------------------------------------------------------
E|--------------------------------------------------------------------------------------

Stave 2:

E|-----7--6--5--4--3--3-----------5--4--3--3-----------5--4--3--3-----------------------
B|--3--------------------3--5--6--------------3--5--6--------------3--5--6--5--3--0--3--
G|--------------------------------------------------------------------------------------
D|--------------------------------------------------------------------------------------
A|--------------------------------------------------------------------------------------
E|--------------------------------------------------------------------------------------

Stave 3:

E|------------------8--8-------------10--8--8-------------10--8--8-------------10--8--8--
B|--------8--10--8--------8--10--11------------8--10--11------------8--10--11------------
G|--8--9---------------------------------------------------------------------------------
D|---------------------------------------------------------------------------------------
A|---------------------------------------------------------------------------------------
E|---------------------------------------------------------------------------------------

Stave 4:

E|-------------8--10-----8-----6-----4-----2--------------------2--3--5--2--3--3-----------
B|--8--10--11---------8-----6-----4-----2--------5-----3--1-----------------------3--5--6--
G|--------------------------------------------4-----2--------2-----------------------------
D|-----------------------------------------------------------------------------------------
A|-----------------------------------------------------------------------------------------
E|-----------------------------------------------------------------------------------------

Stave 5:

E|--10--8--10--8--7--------------
B|-------------------8--3--5--6--
G|-------------------------------
D|-------------------------------
A|-------------------------------
E|-------------------------------

http://www.guitartabcreator.com
Guitar Tab Creator is intended to store guitar tab created through the tool. It currently does not support in-line text editing. Any text you place in here will be lost. If you need to comment on your tab, please use the "Tab Notes" section located below.